Cifra Club

Le Vent Nous Portera

Noir Désir

Cifrado: Principal (guitarra y guitarra eléctrica)
Selo Cifra Club: esta cifra foi revisada para atender aos critérios oficiais da nossa Equipe de Qualidade.
tono: D
           Em                                           D
E|---------------------------------------------------------------------------|
B|---------------------------------------------------------------------------|
G|-x--x--x--9--x--x--x--9--x--x--x--9--x--x--x--9--x--x--x--7--x--x----------|
D|-x--x--x--9--x--x--x--9--x--x--x--9--x--x--x--9--x--x--x--7--x--x----------|
A|-x--x--x--7--x--x--x--7--x--x--x--7--x--x--x--7--x--x--x--5--x--x----------|
E|---------------------------------------------------------------------------|

E|---------------------------------------------------------------------------|
B|---------------------------------------------------------------------------|
G|-x--x--x--7--x--x--x--7--x--x--x--7--x--x--x--7--x--x--x--7---x--x---------|
D|-x--x--x--7--x--x--x--7--x--x--x--7--x--x--x--7--x--x--x--7--x--x----------|
A|-x--x--x--5--x--x--x--5--x--x--x--5--x--x--x--5--x--x--x--5--x--x----------|
E|---------------------------------------------------------------------------|


     during first guitar plays  (Em /D)

E|------------12------------12----------12-----------12------------12-------|
B|--------------------------------------------------------------------------|
G|-----12-----------12-----------12---------12------------12-----------12---|
D|--------------------------------------------------------------------------|
A|--------------------------------------------------------------------------|
E|--------------------------------------------------------------------------|
    guitar 2


E|-10--10--10--10--10--10--10--10--10--10--10--10--10--10--10--10--10--10--10-|
B|-10--10--10--10--10--10--10--10--10--10--10--10--10--10--10--10--10--10--10-|
G|-11--11--11--11--11--11--11--11--11--11--11--11--11--11--11--11--11--11--11-|
D|----------------------------------------------------------------------------|
A|----------------------------------------------------------------------------|
E|----------------------------------------------------------------------------|

E|--12-12-12-12----12-12-12--12--12-12----12-12-12---12---12-12-12-12-12-12--|
B|--12-12-12-12----12-12-12--12--12-12----12-12-12---12---12-12-12-12-12-12--|
G|--12-12-12-12----12-12-12--12--12-12----12-12-12---12---12-12-12-12-12-12--|
D|---------------------------------------------------------------------------|
A|---------------------------------------------------------------------------|
E|---------------------------------------------------------------------------|

E|--14-14-14-14----14-14---12--12---12--12--12---15--15----14-14-14---12--12-|
B|--12-12-12-12----12-12---12--12---12--12--12---12--12----12-12-12---12--12-|
G|--12-12-12-12----12-12---12--12---12--12--12---12--12----12-12-12---12--12-|
D|---------------------------------------------------------------------------|
A|---------------------------------------------------------------------------|
E|---------------------------------------------------------------------------|

E|---------------------------------------------------------------------------|
B|----------12------------12----------12-----------12----------12---------12-|
G|---------------------------------------------------------------------------|
D|--12--------------12---------12----------12--------------------------------|
A|---------------------------------------------------------------------------|
E|---------------------------------------------------------------------------|

E|---------------------------------------------------------------------------|
B|-----12-------12-------12------12--12--12---------12----12----12-----------|
G|---------------------------------------------------------------------------|
D|--12-------12-----12-------12----------------12----12-----12---------------|
A|---------------------------------------------------------------------------|
E|---------------------------------------------------------------------------|

E|-----12----12----12---------12----12----12----------12----12----12---------|
B|---------------------------------------------------------------------------|
G|---12-------------------12----12-----12-------12---------------------------|
D|---------------------------------------------------------------------------|
A|---------------------------------------------------------------------------|

E|--------10-------------10--------------------------10---------------10--|
B|--------------13--------------13--13--13--------------------13----------|
G|--11------11-----11-------11-------------------11-----11------11--------|
D|------------------------------------------------------------------------|
A|------------------------------------------------------------------------|
E|------------------------------------------------------------------------|

E|------------------------------12----12----12-------| ETC…-----------------|
B|----------13---13--13---------------------------------------------------|
G|---11--------------------12-----12----12--------------------------------|
D|------------------------------------------------------------------------|
A|------------------------------------------------------------------------|
E|------------------------------------------------------------------------|

E|---7-------------7-------------------7-----------------7----------8-------|
B|---------8---------------------8----------------------8-------------------|
G|--------------------------------------------------------------------------|
D|--------------------------------------------------------------------------|
A|--------------------------------------------------------------------------|
E|--------------------------------------------------------------------------|

E|-7-----------------7------------------7-----------------------------------|
B|---------8------------------8-----------------8-------------10---------8--|
G|--------------------------------------------------------------------------|
D|--------------------------------------------------------------------------|
A|--------------------------------------------------------------------------|
E|--------------------------------------------------------------------------|

E|---5-----------------5-----------------5------------------5-----------8---|
B|------------7---------------7-------------------7-------------------------|
G|--------------------------------------------------------------------------|
D|--------------------------------------------------------------------------|
A|--------------------------------------------------------------------------|
E|--------------------------------------------------------------------------|

E|--7-----------------7---------------7---------------7-------------8-------|
B|-----------8---------------8----------------8-----------------------------|
G|--------------------------------------------------------------------------|
D|--------------------------------------------------------------------------|
A|--------------------------------------------------------------------------|
E|--------------------------------------------------------------------------|

E|--7----------------7------------------7----------------7---------------8--|
B|----------8-----------------8-------------------8-------------------------|
G|--------------------------------------------------------------------------|
D|--------------------------------------------------------------------------|
A|--------------------------------------------------------------------------|
E|--------------------------------------------------------------------------|

E|---7---------------7------------------7-----------------------------------|
B|-------------8---------------8--------------------8--------10----------8--|
G|--------------------------------------------------------------------------|
D|--------------------------------------------------------------------------|
A|--------------------------------------------------------------------------|
E|--------------------------------------------------------------------------|

E|---5-----------------5--------------------5--------------5-------------8--|
B|---------7---------------------7-----------------7------------------------|
G|--------------------------------------------------------------------------|
D|--------------------------------------------------------------------------|
A|--------------------------------------------------------------------------|
E|--------------------------------------------------------------------------|

       decreshendo

E|---7---------------------7---------------------7--------------------------|
B|---------------8---------------------8--------------------8---------------|
G|--------------------------------------------------------------------------|
D|--------------------------------------------------------------------------|
A|--------------------------------------------------------------------------|
E|--------------------------------------------------------------------------|
Otros videos de esta canción
    282 exhibiciones
      • ½ Tono
      • A
      • Bb
      • B
      • C
      • Db
      • D
      • Eb
      • E
      • F
      • F#
      • G
      • Ab
    • Agregar a la lista

    Afinación de cifrado

    Afinador online

      OK