Cifra Club

O Amanhã

Detonautas

Tab de bajo: Versão 2
Já pensou em usar uma coleção de roupas do Cifra Club? Responda as perguntas abaixo e nos ajude nessa missão! →
Intro:
G|---------------------------------|
A|---7------------------------------|2x
D|---------------------------------|
E|5-5-5-5--2-2-2-2--3-3-3-3-3-3-3-3|

Verso1:
G|---------------------------------|
A|---------------------------------|4x
D|---------------------------------|
E|3333333333333333-5555555555555555|

Refrão:
G|---------------------------------|
A|---------------------------------|4x
D|---------------------------------|
E|5-5-5-5--2-2-2-2--3-3-3-3-3-3-3-3|

solo de guitarra e rap (passo a passo...)
G|--------------------------------|
A|--------------------------------|6x
D|--------------------------------|
E|3-3-3-3-3-3-3-3--5-5-5-5-5-5-5-5|

Refrão:
G|---------------------------------|
A|---------------------------------|8x
D|---------------------------------|
E|5-5-5-5--2-2-2-2--3-3-3-3-3-3-3-3|

FIM!!!
Composição de DJ Cleston / Fábio Brasil / Renato Rocha / Rodrigo Netto / Tico Santa Cruz
Colaboración y revision:
  • Everton Cunha
2 reproducciones

0 comentarios

Ver todos os comentários

¿Conseguiste tocar?

0 Tocaram 0 Ainda não

Grave um vídeo tocando O Amanhã e nos envie!

00:00 / 00:00
outros vídeos desta música
repetir qualidade Automático
Outros vídeos desta música
00:00 / 00:00
Automático
OK