Cifra Club

Addiction

Dope

Cifrado: Principal (guitarra y guitarra eléctrica)
tono: G
Intro:
E|---------------------------------------------------------------------------|
B|---------------------------------------------------------------------------|
G|---------------------------------------------------------------------------|
D|---------------------------------------------------------------------------|
A|---------------------------------------------------------------------------|
D|--2/-0-9--0-10--0-9--0-10~~~--0-9--0-10--0-9--0-'10~~~-(2x)----------------|

Riff 2: 
E|---------------------------------------------------------------------------|
B|---------------------------------------------------------------------------|
G|---------------------------------------------------------------------------|
D|-----2-------------2-------------2-----------------------------------------|
A|-----2---------7---2---------3---2------------5-3-----5-----'5~------------|
D|--9\-2-#-#--#-#--8-2-#-#--#-#--5-2-#-#--#-#-3-----5-6---3-2----------------|

E|----------------------------------------------------------------------------|
B|----------------------------------------------------------------------------|
G|----------------------------------------------------------------------------|
D|-----2-------------2--------------2-----------------------------------------|
A|-----2---------7---2----------3---2-----5-"9-8-7-6-7-6-5-4-5-4-3-2-3-2-1-0--|
D|-----2-#-#--#-#--8-2-#-#--#-#---5-2####3------------------------------------|

Riff 3:
E|---------------------------------------------------------------------------|
B|---------------------------------------------------------------------------|
G|---------------------------------------------------------------------------|
D|-0---------------3--0---------------3--0--------------3--0--'3~~~-------0--|
A|-0--=------------3--0---------------3--0--------------3--0--------'2-'1-0--|
D|-0-0-#-#--#-#--"#3"-0-0--#-#--#-#-"#3"-0-0-#-#--#-#-"#3"-00-------------0--|

Riff 3:
E|---------------------------------------------------------------------------|
B|---------------------------------------------------------------------------|
G|---------------------------------------------------------------------------|
D|--0---------------3--0--------------3--0--------------3--0--'3~~~-------0--|
A|--0---------------3--0--------------3--0--------------3--0--------'3-'2-0--|
D|--0-0-#-#--#-#--"#3"-0-0-#-#--#-#-"#3"-0-0-#-#--#-#-"#3"-0-0------------0--|

  bridge 1: start
E|---------------------------------------------------------------------------|
B|---------------------------------------------------------------------------|
G|---------------------------------------------------------------------------|
D|------------------'4~~------------------'5~~------------------'7~~---------|
A|---------------------------------------------------------------------------|
D|--#-#--#--#-#--#--------#-#--#--#-#--#--------#-#--#--#-#--#---------------|

Ponte 1:
E|---------------------------------------------------------------------------|
B|---------------------------------------------------------------------------|
G|---------------------------------------------------------------------------|
D|--1-3--1-3--1-3---+--------------------------------------------------------|
A|--1-3--1-3--1-3---+--------------------------------------------------------|
D|--1-3--1-3--1-3---+--------------------------------------------------------|
00:00 / 00:00
Otros videos de esta canción
Repetir
Otros videos de esta canción
Composición de Edsel Dope
Colaboración y revisión:
  • Wlamir
21 vistas
    • ½ Tono
    • A
    • Bb
    • B
    • C
    • Db
    • D
    • Eb
    • E
    • F
    • F#
    • G
    • Ab
  • Agregar a la lista

    0 comentarios

    Ver todos los comentarios

    ¿Lograste tocar?

    0 Tocaron 0 Aún no

    ¡Graba un video tocando Addiction y envíanoslo!

    00:00 / 00:00
    OK