Cifra Club

Crazy

Dope

Cifrado: Principal (guitarra y guitarra eléctrica)
tono: C
p=pinch harmonic
h=hold

Intro x10

----------------------------------------------------|
----------------------------------------------------|
-9h10h9--8h9h8--9h10h9------------------------------|
-----------------------10-10------------------------|
----------------------------------------------------|
----------------------------------------------------|
                        p  p

Refrão

----------------------------------------------------|
----------------------------------------------------|
----------------------------------------------------|
-2-2-5-5-5-10-10-9-9--------------------------------|
-2-2-5-5-5-10-10-9-9--------------------------------|
-0-0-3-3-3--8--8-7-7--------------------------------|
00:00 / 00:00
Otros videos de esta canción
Repetir
Otros videos de esta canción
Composición de Edsel Dope
Colaboración y revisión:
  • Abel junior
21 vistas
    • ½ Tono
    • A
    • Bb
    • B
    • C
    • Db
    • D
    • Eb
    • E
    • F
    • F#
    • G
    • Ab
  • Agregar a la lista

    0 comentarios

    Ver todos los comentarios

    ¿Lograste tocar?

    0 Tocaron 0 Aún no

    ¡Graba un video tocando Crazy y envíanoslo!

    00:00 / 00:00
    OK