Cifra Club

Easier

Dope

Cifrado: Principal (guitarra y guitarra eléctrica)
tono: D
Intro: 2x

E|---------------------|
B|---------------------|
G|---------------------|
D|-11-11-X-X-9-9-X-----|
A--9-9--X-X-7-7-X-9~--|
E|-----------------7~--|

1st Verse:

E|------------------------------------------------|
B|------------------------------------------------|
G|------------------------------------------------|
D|-11-11-X-X-9-9-X--------------------------------|
A|--9-9--X-X-7-7-X-9~-9-9-9-7-7-7-7-7-X-X---------|
E|-----------------7~-7-7-7-5-5-5-5-5-X-X---|

2nd Verse:

E|-----------------------------------|
B|-----------------------------------|
G|-----------------------------------|
D|-11-11-11-11-11-11-9-9-9-9-9-9-9-9-|
A-9--9--9--9--9--9--7-7-7-7-7-7-7-7-|
E|-----------------------------------|

 2nd Verse COntinuaçao.

E|--------------------------------------|
B|--------------------------------------|
G|--------------------------------------|
D|-11-11-11-11-11-11-14-14-14-13-13-13--|
A-9--9--9--9--9--9--12-12-12-11-11-11--|
E|--------------------------------------|

Play the 2nd verse 2x on the 3rd time end on:

E|-----
B|-----
G|-----
D|-11~-
A|-9-~-
E|-----

Pre|-chorus Riff:

E|------------------------------------------|
B|------------------------------------------|
G|------------------------------------------|
D|-11-11-X-X-9-9-X--------------------------|
A|-9--9--X-X-7-7-X-9~-9-9-9-9-9-9-9---------|
E|-----------------7~-7-7-7-7-7-7-7---|

Play 2nd verse riff again 2x on 3rd time play:

E|---------------------------------|
B|---------------------------------|
G|---------------------------------|
D|-11-11-11-11-11-11-11-9~---------|
A|-9--9--9--9--9--9--9--7~---|
E|---------------------------------|
Composición de Edsel Dope
Colaboración y revisión:
  • Abel junior
23 vistas
    • ½ Tono
    • A
    • Bb
    • B
    • C
    • Db
    • D
    • Eb
    • E
    • F
    • F#
    • G
    • Ab
  • Agregar a la lista

    0 comentarios

    Ver todos los comentarios

    ¿Lograste tocar?

    0 Tocaron 0 Aún no

    ¡Graba un video tocando Easier y envíanoslo!

    00:00 / 00:00
    Outros vídeos desta música
    Repetir Calidad Automático
    Outros vídeos desta música
    00:00 / 00:00
    Automático
    OK