Cifra Club

Nothing For Me Here

Dope

Cifrado: Principal (guitarra y guitarra eléctrica)
tono: G
Intro:
E|---------------------------------------|
B|---------------------------------------|
G|---------------------------------------|
D|15\\\\\-3333-4-3--10-11-10-11--6--3-6-8|
A|15\\\\\-3333-4-3--10-11-10-11--6--3-6-8|
D|15\\\\\-3333-4-3--10-11-10-11--6--3-6-8|

E|--------------------------|
B|--------------------------|
G|--------------------------|
D|3333-4-3--10-11-10-11--4~~|
A|3333-4-3--10-11-10-11--4~~|
D|3333-4-3--10-11-10-11--4~~|

Intro Solo:
E|------------------------------------------------------------------------15|
B|1////13-------------------------------------------------------------------|
G|---------0-12-0-13-0-12-0-15^^----------------------13(x4)-15(x4)-17(x4)--|
D|--------------------------------13(x4)-15(x4)-17(x4)----------------------|
A|--------------------------------------------------------------------------|
D|--------------------------------------------------------------------------|

Verso 1:
E|----------|-----|----------|13"14"13"14"13|
B|----------|-----|----------|--------------|
G|----------|-----|----------|--------------|
D|---3-4-3~\|4-4-4|---3-4-3~\|--------------|
A|---3-4-3~\|4-4-4|---3-4-3~\|--------------|
D|0--3-4-3~\|4-4-4|0--3-4-3~\|--------------|

Verso 2:
E|------------------------------------|
B|------------------------------------|
G|------------------------------------|
D|---3-4-3----------------------------|
A|---3-4-3----------------------------|
D|0--3-4-3--10-11-10-11--6--3-6-8-----|

E|----------------------------|
B|----------------------------|
G|----------------------------|
D|--------------------------44|
A|--------------------------44|
D|0--3-4-3--10-11-10-11--4~~44|

Verso 3:
E|------------------------------------|
B|------------------------------------|
G|------------------------------------|
D|---3-4-3----------------------------|
A|---3-4-3----------------------------|
D|0--3-4-3--10-11-10-11--6--3-6-8-----|

E|-------------------------------|
B|-------------------------------|
G|-------------------------------|
D|-------------------------------|
A|--------------------------10\\\|
D|0--3-4-3--10-11-10-11--4~~-----|

Refrão:
E|-------------------------------|
B|-------------------------------|
G|-------------------------------|
D|3333-4-3--10-11-10-11--6--3-6-8|
A|3333-4-3--10-11-10-11--6--3-6-8|
D|3333-4-3--10-11-10-11--6--3-6-8|

E|--------------------------|
B|--------------------------|
G|--------------------------|
D|3333-4-3--10-11-10-11--4~~|
A|3333-4-3--10-11-10-11--4~~|
D|3333-4-3--10-11-10-11--4~~|

E|-------------------------------|
B|-------------------------------|
G|-------------------------------|
D|3333-4-3--10-11-10-11--6--3-6-8|
A|3333-4-3--10-11-10-11--6--3-6-8|
D|3333-4-3--10-11-10-11--6--3-6-8|

E|--------------------------|
B|--------------------------|
G|--------------------------|
D|3333-4-3--10-11-10-11--4~~|
A|3333-4-3--10-11-10-11--4~~|
D|3333-4-3--10-11-10-11--4~~|

Verso 4:
E|--------------------------------------------|
B|--------------------------------------------|
G|10----10----10----8----10----10----10----8--|
D|---10----10----10---10----10----10----10---8|
A|--------------------------------------------|
D|--------------------------------------------|

E|------------------------------------------|
B|------------------------------------------|
G|10----10----10----8----10----10----8---8--|
D|---10----10----10---10----10----10---8---8|
A|------------------------------------------|
D|------------------------------------------|

E|--------------------------------------------|
B|--------------------------------------------|
G|10----10----10----8----10----10----10----8--|
D|---10----10----10---10----10----10----10---8|
A|--------------------------------------------|
D|--------------------------------------------|

E|------------------------------------13"14"13"14"13|
B|--------------------------------------------------|
G|10----10----10----8----10----10-------------------|
D|---10----10----10---10----10----10----------------|
A|--------------------------------------------------|
D|--------------------------------------------------|

Verso 5:
E|------------------------------------|
B|------------------------------------|
G|------------------------------------|
D|---3-4-3----------------------------|
A|---3-4-3----------------------------|
D|0--3-4-3--10-11-10-11--6--3-6-8-----|

E|----------------------------|
B|----------------------------|
G|----------------------------|
D|--------------------------44|
A|--------------------------44|
D|0--3-4-3--10-11-10-11--4~~44|

Verso 6:
E|------------------------------------|
B|------------------------------------|
G|------------------------------------|
D|---3-4-3----------------------------|
A|---3-4-3----------------------------|
D|0--3-4-3--10-11-10-11--6--3-6-8-----|

E|-------------------------------|
B|-------------------------------|
G|-------------------------------|
D|-------------------------------|
A|-------------------------------|
D|0--3-4-3--10-11-10-11--4~~-15\\|

Refrão:
E|-------------------------------|
B|-------------------------------|
G|-------------------------------|
D|3333-4-3--10-11-10-11--6--3-6-8|
A|3333-4-3--10-11-10-11--6--3-6-8|
D|3333-4-3--10-11-10-11--6--3-6-8|

E|--------------------------|
B|--------------------------|
G|--------------------------|
D|3333-4-3--10-11-10-11--4~~|
A|3333-4-3--10-11-10-11--4~~|
D|3333-4-3--10-11-10-11--4~~|

E|-------------------------------|
B|-------------------------------|
G|-------------------------------|
D|3333-4-3--10-11-10-11--6--3-6-8|
A|3333-4-3--10-11-10-11--6--3-6-8|
D|3333-4-3--10-11-10-11--6--3-6-8|

E|----------------------------|
B|----------------------------|
G|----------------------------|
D|3333-4-3--10-11-10-11--4~444|
A|3333-4-3--10-11-10-11--4~444|
D|3333-4-3--10-11-10-11--4~444|

Solo:
E|------------------------------|
B|------------------------------|
G|------------------------------|
D|-----10--11"10"8----8---------|
A|-----------------11---11--8---|
D|15\\\-----------------------10|

E|--------------------|--------------------|--------------------|
B|--------------------|--------------------|--------------------|
G|--------------------|--------------------|--------------------|
D|----------10--------|----------10--------|----------10--------|
A|8----11-8----8-10-11|8----11-8----8-11-10|8----11-8----8-10-11|
D|--10----------------|--10----------------|--10----------------|

E|-------------------------|
B|-------------------------|
G|-------------------------|
D|10--11"10"8----10--------|
A|------------11----8-11-10|
D|-------------------------|

E|--------------------|--------------------|--------------------|
B|--------------------|--------------------|--------------------|
G|--------------------|--------------------|--------------------|
D|----------10--------|----------10--------|----------10--------|
A|8----11-8----8-10-11|8----11-8----8-11-10|8----11-8----8-10-11|
D|--10----------------|--10----------------|--10----------------|

E|-------------------------|
B|-------------------------|
G|-------------------------|
D|10--11"10"8----10--------|
A|------------11----8-11-10|
D|-------------------------|

E|--------------------|--------------------|--------------------|
B|--------------------|--------------------|--------------------|
G|--------------------|--------------------|--------------------|
D|----------10--------|----------10--------|----------10--------|
A|8----11-8----8-10-11|8----11-8----8-11-10|8----11-8----8-10-11|
D|--10----------------|--10----------------|--10----------------|

E|-------------------------|
B|-------------------------|
G|-------------------------|
D|10--11"10"8----10--------|
A|------------11----8-11-10|
D|-------------------------|

E|--------------------|--------------------|--------------------|
B|--------------------|--------------------|--------------------|
G|--------------------|--------------------|--------------------|
D|----------10--------|----------10--------|----------10--------|
A|8----11-8----8-10-11|8----11-8----8-11-10|8----11-8----8-10-11|
D|--10----------------|--10----------------|--10----------------|

E|---------------------------| |-----------------|   |15"16"15"16"15|
B|---------------------------| |-----------------|   |--------------|
G|----------------10----12-10| |13-10----10------|x3 |--------------|
D|10--11"10-13-10----13------| |------13----13-11|   |--------------|
A|---------------------------| |-----------------|   |--------------|
D|---------------------------| |-----------------|   |--------------|

E|-------------------------------------------------------------------|
B|----13-11----11----------------------------------------------------|
G|13--------13----13"12"10--12-10----10------------------------------|
D|--------------------------------13----13"12"10--10-----------------|
A|---------------------------------------------------13-11-13-11-10-8|
D|-------------------------------------------------------------------|

E|------------13---------------------12"13"12"13"12|
B|---16----------16----16-15-----------------------|
G|------15-----------------------------------------|
D|13-------13-------13-------13--------------------|
A|------------------------------15-13--------------|
D|-------------------------------------------------|

E|-----------------------------------------14*|
B|--------------------------------------------|
G|---------------------13(x4)-15(x4)-17(x4)---|
D|13(x4)-15(x4)-17(x4)------------------------|
A|--------------------------------------------|
D|--------------------------------------------|

Interludio:
E|-------------------------------|
B|-------------------------------|
G|-------------------------------|
D|3333-4-3--10-11-10-11--6--3-6-8|
A|3333-4-3--10-11-10-11--6--3-6-8|
D|3333-4-3--10-11-10-11--6--3-6-8|

E|--------------------------|
B|--------------------------|
G|--------------------------|
D|3333-4-3--10-11-10-11--4~~|
A|3333-4-3--10-11-10-11--4~~|
D|3333-4-3--10-11-10-11--4~~|

Refrão:
E|-------------------------------|
B|-------------------------------|
G|-------------------------------|
D|3333-4-3--10-11-10-11--6--3-6-8|
A|3333-4-3--10-11-10-11--6--3-6-8|
D|3333-4-3--10-11-10-11--6--3-6-8|

E|----------------------------|
B|----------------------------|
G|----------------------------|
D|3333-4-3--10-11-10-11--4~444|
A|3333-4-3--10-11-10-11--4~444|
D|3333-4-3--10-11-10-11--4~444|

E|-------------------------------|
B|-------------------------------|
G|-------------------------------|
D|3333-4-3--10-11-10-11--6--3-6-8|
A|3333-4-3--10-11-10-11--6--3-6-8|
D|3333-4-3--10-11-10-11--6--3-6-8|

E|----------------------------|
B|----------------------------|
G|----------------------------|
D|3333-4-3--10-11-10-11--4~444|
A|3333-4-3--10-11-10-11--4~444|
D|3333-4-3--10-11-10-11--4~444|

E|-------------------------------|
B|-------------------------------|
G|-------------------------------|
D|3333-4-3--10-11-10-11--6--3-6-8|
A|3333-4-3--10-11-10-11--6--3-6-8|
D|3333-4-3--10-11-10-11--6--3-6-8|

E|----------------------------|
B|----------------------------|
G|----------------------------|
D|3333-4-3--10-11-10-11--4~444|
A|3333-4-3--10-11-10-11--4~444|
D|3333-4-3--10-11-10-11--4~444|

E|-------------------------------|
B|-------------------------------|
G|-------------------------------|
D|3333-4-3--10-11-10-11--6--3-6-8|
A|3333-4-3--10-11-10-11--6--3-6-8|
D|3333-4-3--10-11-10-11--6--3-6-8|

E|----------------------------|
B|----------------------------|
G|----------------------------|
D|3333-4-3--10-11-10-11--4~444|
A|3333-4-3--10-11-10-11--4~444|
D|3333-4-3--10-11-10-11--4~444|

Solo:
E|-------------------15*|
B|1///13-13-13"14"13----|
G|----------------------|
D|----------------------|
A|----------------------|
D|----------------------|

E|-----------------------------------------------------------------------|
B|13-14-13-11-13-11----11------------------------------------------------|
G|------------------13----13-12-10-12-10----10---------------------------|
D|---------------------------------------13----13-11-13-11-10-11-10----10|
A|------------------------------------------------------------------13---|
D|-----------------------------------------------------------------------|

E|--------------------17*|------------------------------------------------15(x4)-13~\\\|
B|-----------------------|-------------------------------------------------------------|
G|-----------------------|------------------------------------------16(x4)-------------|
D|-----------------------|---------------------13(x4)-15(x4)-17(x4)--------------------|
A|13-10-13-10-11-10-8----|13(x4)-15(x4)-17(x4)-----------------------------------------|
E|-------------------------------------------------------------------------------------|
Composición de Edsel Dope
Colaboración y revisión:
  • Marcos
81 vistas
    • ½ Tono
    • A
    • Bb
    • B
    • C
    • Db
    • D
    • Eb
    • E
    • F
    • F#
    • G
    • Ab
  • Agregar a la lista

    0 comentarios

    Ver todos los comentarios

    ¿Lograste tocar?

    0 Tocaron 0 Aún no

    ¡Graba un video tocando Nothing For Me Here y envíanoslo!

    00:00 / 00:00
    Outros vídeos desta música
    Repetir Calidad Automático
    Outros vídeos desta música
    00:00 / 00:00
    Automático
    OK