Cifra Club

Spine For You

Dope

Cifrado: Principal (guitarra y guitarra eléctrica)
tono: E
Date: Fri, 7 Apr 2000 15:56:45 -0400
From: "-\[x\]static x\[x\]-" 

spine for you
felons and revolutionaries (1999)

TABBED BY MARK LITTLE
*
standard tuning (Eadgbe)

tab key:
x:dead note/palm mute
s-slide

RIFF A
e-------------------------------5-5-5---------
b-------------------------------5-5-5---------
g-------------5-4---------------6-6-6---------
d--4xxxxxxx4--5-4---4xxxxxxxx4s-7-7-7---------
a--4xxxxxxx4--3-2---4xxxxxxxx4s-7-7-7---------
E--2xxxxxxx2--------2xxxxxxxx2s-5-5-5---------

BASS RIFF
g-----------------------------
d-----------------------------
a---------0-0-0-0-3-3-3-2-2-2-
E--2-2-2----------------------

RIFF B
e----------------
b----------------
g----------------
d--4xxxxxxxxxx---
a--4xxxxxxxxxx---
E--2xxxxxxxxxx---

RIFF C
e--------------------
b--------------------
g--------------------
d--4--4--------------
a--4--4--------------
E--2--2------0-0-----

RIFF D (THE KEYBOARD IN 2ND VERSE)
e----------------
b--7~~-----------
g----------------
d----------------
a----------------
E----------------

that's it, just those few simple riffs. also here is the simple bass line 
after 2nd chorus
g----------------
d----------------
a----------------
E--2-2----0-0----

i'm not sure if riff d is a keyboard or a guitar w/ some effect. also on the 
intro, turn on your wah pedal the first two times to get the effect like 
edsel. here is the order if you're not sure.

order:
riff a x 4
bass riff x a lot (listen for exact timing and number of times)
riff b x 8
riff c x 8
riff a x 2
bass riff x a lot
riff d x 1
riff c x 8
riff a x 2
bass riff x a lot
riff c x 8
riff a x 2
bass riff x 2 or 3

and for all you lazy people too lazy to find the case and the lyrics, thank 
me. i'm in a good mood. here they are.


ok, that's it, those few simple riffs, and you got it. check back often, 
tuner, email *
                                  -mark
Composición de Edsel Dope
19 vistas
    • ½ Tono
    • A
    • Bb
    • B
    • C
    • Db
    • D
    • Eb
    • E
    • F
    • F#
    • G
    • Ab
  • Agregar a la lista

    0 comentarios

    Ver todos los comentarios

    ¿Lograste tocar?

    0 Tocaron 0 Aún no

    ¡Graba un video tocando Spine For You y envíanoslo!

    00:00 / 00:00
    Outros vídeos desta música
    Repetir Calidad Automático
    Outros vídeos desta música
    00:00 / 00:00
    Automático
    OK