Cifra Club

You Spin Me Right Round

Dope

Cifrado: Principal (guitarra y guitarra eléctrica)
Selo Cifra Club: esta cifra foi revisada para atender aos critérios oficiais da nossa Equipe de Qualidade.
tono: A
Tuning: Drop D

Guitar I 
Guitar II

v - Down Strum
^ - Up Strum
~ - Hold note
. - Palm muted
/ - Slide up

INTRO - Gtr II

E|-----------------|
B|-----------------|
G|-----------------|
D|-4-4-4-4-7-7-2-2-|
A|-4-4-4-4-7-7-2-2-|
D|-4-4-4-4-7-7-2-2-|


Gtr II

|-----------------------------------------------------------------|
|-----------------------------------------------------------------|
|-----------------------------------------------------------------|
|-4-4-4-4-4-4-4-4-7-7-7-7-2-2-2-2-4-4-4-4-4-4-4-4-9-9-9-9-2-2-2-2-|
|-4-4-4-4-4-4-4-4-7-7-7-7-2-2-2-2-4-4-4-4-4-4-4-4-9-9-9-9-2-2-2-2-|
|-4-4-4-4-4-4-4-4-7-7-7-7-2-2-2-2-4-4-4-4-4-4-4-4-9-9-9-9-2-2-2-2-|


Gtr II                                                           Gtr I
 
|------------------------------------|                           |---------------------------|
|------------------------------------|                           |-14~-12~-10~-9~-7-7-7-7
Otros videos de esta canción
    76 exhibiciones
      • ½ Tono
      • A
      • Bb
      • B
      • C
      • Db
      • D
      • Eb
      • E
      • F
      • F#
      • G
      • Ab
    • Agregar a la lista

    Afinação da cifra

    Afinador online

      Ops (: Contenido disponible solo en portugués.
      OK