Cifra Club

Ropa De Bazar

Ed Maverick

Cifrado: Versão 3 (guitarra y guitarra eléctrica)
Selo Cifra Club: esta cifra foi revisada para atender aos critérios oficiais da nossa Equipe de Qualidade.
tono: Cm (forma dos acordes no tom de Am) Capotraste na 3ª casa
[Tab - Intro]

E|------------------------------------------|
B|------------------------------------------|
G|------------------------------------------|
D|-0--2--0----------------------------------|
A|------------3--2-0------------------------|
E|------------------------------------------|

              Am7     G#
Vámonos de aqui, Acompáñame
              Am7
Yo te cuidare

              G#
Como en las pedas y todo lo demás
Am7
Corre y no vuelvas
                           G#
Si quieres te ayudo a escapar-ar
Am7                                     G#
Corre, te sigo, vámonos a cualquier lugar

 G#                  C7M
Vámonos de viaje y no volver
                     G#
Llegar a un hotel a coger
                       C7M
No importa, vamos a estar bien
G#                  C7M
Vamos a dejar nuestra ciudad
                    G#
Comprarnos ropa de bazar
                   C7M
No importa todo lo Demás

    G#
Ay wey, que felicidad de verte
         C7M
Y luego tus labios besar (bien fuerte)
  G#
Ay wey, que felicidad de verte
         C7M
Y luego tus pecas contar
G#
Ay que me pongo a pensar que por fin
              C7M
Estamos solos tu y yo ya (ahuevo)
  G#
Ay wey, que felicidad de verte
   C7M
Manejar el carro de tu papá

[Tab - Final]

E|------------------------------------------|
B|------------------------------------------|
G|------------------------------------------|
D|-0--2--0----------------------------------|
A|------------3--2-0------------------------|
E|------------------------------------------|

E|------------------------------------------|
B|------------------------------------------|
G|------------------------------------------|
D|-0--1--2----------------------------------|
A|------------------------------------------|
E|------------------------------------------|
Otros videos de esta canción
    280 exhibiciones
      • ½ Tono
      • Am
      • Bbm
      • Bm
      • Cm
      • C#m
      • Dm
      • Ebm
      • Em
      • Fm
      • F#m
      • Gm
      • G#m
    • Agregar a la lista

    Afinação da cifra

    Afinador online

      Ops (: Contenido disponible solo en portugués.
      OK