Cifra Club

All Sparks

Editors

Tab de bajo: Versão 4
Selo Cifra Club: esta cifra foi revisada para atender aos critérios oficiais da nossa Equipe de Qualidade.
     E  E  E    E  E  E   E  E     E  E  E    E  E  E   E  E   
G||--------9h--11--------11--L--|--------9h--11--------11--L--|
D||-----------------------------|-----------------------------|
A||--9--9----------9--9---------|--9--9----------9--9---------|
E||-----------------------------|-----------------------------|

  E  E  E    E  E  E   E  E     E  E  E    E  E  E   E  E   
--------9h--11--------11--L--|--------9h--11--------11--L--|
-----------------------------|-----------------------------|
--9--9----------9--9---------|--9--9----------9--9---------|
-----------------------------|-----------------------------|

  E  E  E  E  Q    E  E     E  E  E  E  Q    E  E   
--------7-----4----L--L--|--------7-----4----L--L--|
-------------------------|-------------------------|
--7--7-------------------|--7--7-------------------|
-------------------------|-------------------------|

  E  E  E    E  E  E   E  E     E  E  E    E  E  E   E  E   
--------9h--11--------11--L--|--------9h--11--------11--L--|
-----------------------------|-----------------------------|
--9--9----------9--9---------|--9--9----------9--9---------|
-----------------------------|-----------------------------|

  E  E  E    E  E  E   E  E     E  E  E    E  E  E   E  E   
--------9h--11--------11--L--|--------9h--11--------11--L--|
-----------------------------|-----------------------------|
--9--9----------9--9---------|--9--9----------9--9---------|
-----------------------------|-----------------------------|

  E  E  E    E  E  E   E  E     E  E  E    E  E  E   E  E   
--------9h--11--------11--L--|--------9h--11--------11--L--|
-----------------------------|-----------------------------|
--9--9----------9--9---------|--9--9----------9--9---------|
-----------------------------|-----------------------------|

  E  E  E  E  Q    E  E     E  E  E  E  Q    E  E   
--------7-----4----L--L--|--------7-----4----L--L--|
-------------------------|-------------------------|
--7--7-------------------|--7--7-------------------|
-------------------------|-------------------------|

  E  E  E    E  E  E   E  E     E  E  E    E  E  E   E  E   
--------9h--11--------11--L--|--------9h--11--------11--L--|
-----------------------------|-----------------------------|
--9--9----------9--9---------|--9--9----------9--9---------|
-----------------------------|-----------------------------|

  E  E  E    E  E  E   E  E     E  E  E    E  E  E   E  E   
--------9h--11--------11--L--|--------9h--11--------11--L--|
-----------------------------|-----------------------------|
--9--9----------9--9---------|--9--9----------9--9---------|
-----------------------------|-----------------------------|

  E  E  E    E  E  E   E  E     E  E  E  E  Q    E  E   
--------9h--11--------11--L--|--------7-----4----L--L--|
-----------------------------|-------------------------|
--9--9----------9--9---------|--7--7-------------------|
-----------------------------|-------------------------|

  E  E  E  E  Q    E  E     E  E  E    E  E  E   E  E   
--------7-----4----L--L--|--------9h--11--------11--L--|
-------------------------|-----------------------------|
--7--7-------------------|--9--9----------9--9---------|
-------------------------|-----------------------------|

  E  E  E    E  E  E   E  E     E  E  E    E  E  E   E  E   
--------9h--11--------11--L--|--------9h--11--------11--L--|
-----------------------------|-----------------------------|
--9--9----------9--9---------|--9--9----------9--9---------|
-----------------------------|-----------------------------|

  E  E  E    E  E  E   E  E     E  E  E    E  E  E   E  E   
--------9h--11--------11--L--|--------9h--11--------11--L--|
-----------------------------|-----------------------------|
--9--9----------9--9---------|--9--9----------9--9---------|
-----------------------------|-----------------------------|

  E  E  E    E  E  E   E  E     E  E  E    E  E  E   E  E   
--------9h--11--------11--L--|--------9h--11--------11--L--|
-----------------------------|-----------------------------|
--9--9----------9--9---------|--9--9----------9--9---------|
-----------------------------|-----------------------------|

  E  E  E  E  Q    E  E     E  E  E  E  Q    E  E     E  E  E  E  E  E  E  E   
--------7-----4----L--L--|--------7-----4----L--L--|--------------------------|
-------------------------|-------------------------|--------------------------|
--7--7-------------------|--7--7-------------------|--------------------------|
-------------------------|-------------------------|--2--2--2--2--2--2--2--2--|

  E  E  E  E  E  E  E  E     Q    Q    E  E  E  E     E  E  E  E  E  E  E  E   
--------------------------|------------------------|--------------------7--6--|
--------------------------|------------------------|--4--4--4-----7--4--------|
--------------------------|--5----5----5--5--5--5--|-----------5--------------|
--2--2--2--2--2--2--2--2--|------------------------|--------------------------|

  Q    Q    E  E  E  E     Q    E  E  E  E  E  E     Q    Q    E  E  E  E   
------------------------|-------------------7--6--|------------------------|
------------------------|--4----4-----7--4--------|------------------------|
--5----5----5--5--5--5--|----------5--------------|--5----5----5--5--5--5--|
------------------------|-------------------------|------------------------|

  E  E  E  E  E  E  E  E     E  E  E  E  E  E  E  E   
--------------------7--6--|--------------------------|
--4--4--4-----7--4--------|--------------------------|
-----------5--------------|--5--5--5--5--5--5--5--5--|
--------------------------|--------------------------|

  E  E  E  E  E  E  E  E     E  E  E    E  E  E   E  E   
--------------------------|--------9h--11--------11--L--|
--4--4--4--4--------------|-----------------------------|
--------------------------|--9--9----------9--9---------|
--------------2--2--2--2--|-----------------------------|

  E  E  E    E  E  E   E  E     E  E  E    E  E  E   E  E   
--------9h--11--------11--L--|--------9h--11--------11--L--|
-----------------------------|-----------------------------|
--9--9----------9--9---------|--9--9----------9--9---------|
-----------------------------|-----------------------------|

  E  E  E    E  E  E   E  E     E  E  E  E  Q    E  E   
--------9h--11--------11--L--|--------7-----4----L--L--|
-----------------------------|-------------------------|
--9--9----------9--9---------|--7--7-------------------|
-----------------------------|-------------------------|

  E  E  E  E  Q    E  E     E  E  E    E  E  E   E  E   
--------7-----4----L--L--|--------9h--11--------11--L--|
-------------------------|-----------------------------|
--7--7-------------------|--9--9----------9--9---------|
-------------------------|-----------------------------|

  E  E  E    E  E  E   E  E     E  E  E    E  E  E   E  E   
--------9h--11--------11--L--|--------9h--11--------11--L--|
-----------------------------|-----------------------------|
--9--9----------9--9---------|--9--9----------9--9---------|
-----------------------------|-----------------------------|

  E  E  E    E  E  E   E  E     E  E  E    E  E  E   E  E   
--------9h--11--------11--L--|--------9h--11--------11--L--|
-----------------------------|-----------------------------|
--9--9----------9--9---------|--9--9----------9--9---------|
-----------------------------|-----------------------------|

  E  E  E    E  E  E   E  E     E  E  E  E  Q    E  E   
--------9h--11--------11--L--|--------7-----4----L--L--|
-----------------------------|-------------------------|
--9--9----------9--9---------|--7--7-------------------|
-----------------------------|-------------------------|

  E  E  E  E  Q    E  E     E  E  E    E  E  E   E  E   
--------7-----4----L--L--|--------9h--11--------11--L--|
-------------------------|-----------------------------|
--7--7-------------------|--9--9----------9--9---------|
-------------------------|-----------------------------|

  E  E  E    E  E  E   E  E     E  E  E    E  E  E   E  E   
--------9h--11--------11--L--|--------9h--11--------11--L--|
-----------------------------|-----------------------------|
--9--9----------9--9---------|--9--9----------9--9---------|
-----------------------------|-----------------------------|

  E  E  E    E  E  E   E  E     E  E  E    E  E  E   E  E   
--------9h--11--------11--L--|--------9h--11--------11--L--|
-----------------------------|-----------------------------|
--9--9----------9--9---------|--9--9----------9--9---------|
-----------------------------|-----------------------------|

  E  E  E    E  E  E   E  E     E  E  E  E  Q    E  E   
--------9h--11--------11--L--|--------7-----4----L--L--|
-----------------------------|-------------------------|
--9--9----------9--9---------|--7--7-------------------|
-----------------------------|-------------------------|

  E  E  E  E  Q    E  E     E  E  E    E  E  E   E  E   
--------7-----4----L--L--|--------9h--11--------11--L--|
-------------------------|-----------------------------|
--7--7-------------------|--9--9----------9--9---------|
-------------------------|-----------------------------|

  E  E  E    E  E  E   E  E     Q    Q    E  E  E  E   
--------9h--11--------11--L--|------------------------|
-----------------------------|------------------------|
--9--9----------9--9---------|--5----5----5--5--5--5--|
-----------------------------|------------------------|

  E  E  E  E  E  E  E  E     Q    Q    E  E  E  E     Q    E  E  E  E  E  E   
--------------------7--6--|------------------------|-------------------7--6--|
--4--4--4-----7--4--------|------------------------|--4----4-----7--4--------|
-----------5--------------|--5----5----5--5--5--5--|----------5--------------|
--------------------------|------------------------|-------------------------|

  Q    Q    E  E  E  E     E  E  E  E  E  E  E  E     E  E  E  E  E  E  E  E   
------------------------|--------------------7--6--|--------------------------|
------------------------|--4--4--4-----7--4--------|--------------------------|
--5----5----5--5--5--5--|-----------5--------------|--5--5--5--5--5--5--5--5--|
------------------------|--------------------------|--------------------------|

  E  E  E  E  E  E  E  E     Q    E     E   E   E   E  E   
--------------------------|-------9h--(11)----------------|
--4--4--4--4--------------|--------------------12--11--9--|
--------------------------|--9--------------9-------------|
--------------2--2--2--2--|-------------------------------|

  Q    E     E   E   E   E  E     Q    E     E   E   E   E  E   
-------9h--(11)----------------|-------9h--(11)----------------|
--------------------12--11--9--|--------------------12--11--9--|
--9--------------9-------------|--9--------------9-------------|
-------------------------------|-------------------------------|

  Q    E     E   E  E  E  E     Q    E     E   E   E   E  E   
-------9h--(11)--------------|-------9h--(11)----------------|
--------------------7-----7--|--------------------12--11--9--|
--9--------------9-----------|--9--------------9-------------|
-----------------------------|-------------------------------|

  Q    E     E   E   E   E  E     Q    E     E   E   E   E  E   
-------9h--(11)----------------|-------9h--(11)----------------|
--------------------12--11--9--|--------------------12--11--9--|
--9--------------9-------------|--9--------------9-------------|
-------------------------------|-------------------------------|

  Q    E     E   E   E   E  E     E  E  E  E  Q    E  E   
-------9h--(11)----------------|--------7-----4----L--L--|
--------------------12--11--9--|-------------------------|
--9--------------9-------------|--7--7-------------------|
-------------------------------|-------------------------|

  E  E  E  E  Q    E  E     Q    E     E   E   E   E  E   
--------7-----4----L--L--|-------9h--(11)----------------|
-------------------------|--------------------12--11--9--|
--7--7-------------------|--9--------------9-------------|
-------------------------|-------------------------------|

  Q    E     E   E   E   E  E     Q    E     E   E   E   E  E   
-------9h--(11)----------------|-------9h--(11)----------------|
--------------------12--11--9--|--------------------12--11--9--|
--9--------------9-------------|--9--------------9-------------|
-------------------------------|-------------------------------|

  Q    E     E   E   E   E  E     Q    E     E   E   E   E  E   
-------9h--(11)----------------|-------9h--(11)----------------|
--------------------12--11--9--|--------------------12--11--9--|
--9--------------9-------------|--9--------------9-------------|
-------------------------------|-------------------------------|

  Q    E     E   E   E   E  E     E  E  E  E  Q    E  E   
-------9h--(11)----------------|--------7-----4----L--L--|
--------------------12--11--9--|-------------------------|
--9--------------9-------------|--7--7-------------------|
-------------------------------|-------------------------|

  E  E  E  E  Q    E  E     Q    E     E   E   E   E  E   
--------7-----4----L--L--|-------9h--(11)----------------|
-------------------------|--------------------12--11--9--|
--7--7-------------------|--9--------------9-------------|
-------------------------|-------------------------------|

  Q    E     E   E   E   E  E     E  E  E  E  E  E  E  E   
-------9h--(11)----------------|--------------------------|
--------------------12--11--9--|--------------------------|
--9--------------9-------------|--5--5--5--5--5--5--5--5--|
-------------------------------|--------------------------|

  E  E  E  E  E  E  E  E     E  E  E  E  E  E  E  E   
--------------------------|--------------------------|
--------------------------|--------------------------|
--9--9--9--9--2--2--2--2--|--5--5--5--5--5--5--5--5--|
--------------------------|--------------------------|

  E  E  E  E  E  E  E  E     E  E  E  E  E  E  E  E   
--------------------7--6--|--------------------------|
--4--4--4-----7--4--------|--------------------------|
-----------5--------------|--5--5--5--5--5--5--5--5--|
--------------------------|--------------------------|

  E  E  E  E  E  E  E  E     E  E  E  E  E  E  E  E   
--------------------7--6--|--------------------------|
--4--4--4-----7--4--------|--------------------------|
-----------5--------------|--5--5--5--5--5--5--5--5--|
--------------------------|--------------------------|

  E  E  E  E  E  E  E  E     E  E  E  E  E  E  E  E   
--------------------7--6--|--------------------------|
--4--4--4-----7--4--------|--------------------------|
-----------5--------------|--5--5--5--5--5--5--5--5--|
--------------------------|--------------------------|

  E  E  E  E  E  E  E  E     E  E  E  E  E  E  E  E   
--------------------------|--------------------------|
--------------------------|--------------------------|
--9--9--9--9--2--2--2--2--|--5--5--5--5--5--5--5--5--|
--------------------------|--------------------------|

  E  E  E  E  E  E  E  E     E  E  E  E  E  E  E  E   
--------------------------|--------------------------|
--------------------------|--------------------------|
--9--9--9--9--2--2--2--2--|--5--5--5--5--5--5--5--5--|
--------------------------|--------------------------|

  E  E  E  E  E  E  E  E     E  E  E  E  E  E  E  E   
--------------------------|--------------------------|
--------------------------|--------------------------|
--9--9--9--9--2--2--2--2--|--5--5--5--5--5--5--5--5--|
--------------------------|--------------------------|

  E  E  E  E  E  E  E  E     E  E  H        Q            
--------------------------|----------------------|-----||
--------------------------|----------------------|-----||
--9--9--9--9--2--2--2--2--|--2-------------------|-----||
--------------------------|----------------------|-----||


(Duration Legend)
---------------
W - whole
H - half
Q - quarter
E - 8th
S - 16th
T - 32nd
X - 64th
. - note dotted
|-n-|  - n-tuplets
Otros videos de esta canción
    1 exhibiciones

    Afinação da cifra

    Afinador online

    Ops (: Contenido disponible solo en portugués.
    OK