Cifra Club

All Sparks

Editors

Tab de bajo: Versão 2
Selo Cifra Club: esta cifra foi revisada para atender aos critérios oficiais da nossa Equipe de Qualidade.
Standard Tuning EADG

Update - Last chorus was wrong sorry, corrected now

Intro/Verse
G|-----------------|
D|-----------------| X4
A|-9-9-7h9-9-9-9-9-|
E|-----------------|

G|-----7---------|
D|-------9-9-9-9-| X2
A|-7-7-----------|
E|---------------|

G|-----------------|
D|-----------------| X6
A|-9-9-7h9-9-9-9-9-|
E|-----------------|

G|-----7---------|
D|-------9-9-9-9-| X2
A|-7-7-----------|
E|---------------|

G|-----------------|
D|-----------------| X6
A|-9-9-7h9-9-9-9-9-|
E|-----------------|

G|-----7---------|
D|-------9-9-9-9-| X2
A|-7-7-----------|
E|---------------|

G|-----------------|
D|-----------------| X6
A|-9-9-7h9-9-9-9-9-|
E|-----------------|

G|-----7---------|
D|-------9-9-9-9-| X2
A|-7-7-----------|
E|---------------|

G|-----------------|
D|-----------------| X2
A|-9-9-7h9-9-9-9-9-|
E|-----------------|

Chorus
G|-----------------------------------|
D|-------------------------9-9-12-11-| X3
A|-5-5-5-5-5-5-5-5-9-9-9-9-----------| 
E|-----------------------------------|

G|---------------------------------|
D|---------------------------------| 
A|-5-5-5-5-5-5-5-5-9-9-9-9-2-2-2-2-| 
E|---------------------------------|

Verse
G|-----------------|
D|-----------------| X4
A|-9-9-7h9-9-9-9-9-|
E|-----------------|

G|-----7---------|
D|-------9-9-9-9-| X2
A|-7-7-----------|
E|---------------|

G|-----------------|
D|-----------------| X6
A|-9-9-7h9-9-9-9-9-|
E|-----------------|

G|-----7---------|
D|-------9-9-9-9-| X2
A|-7-7-----------|
E|---------------|

G|-----------------|
D|-----------------| X6
A|-9-9-7h9-9-9-9-9-|
E|-----------------|

G|-----7---------|
D|-------9-9-9-9-| X2
A|-7-7-----------|
E|---------------|

G|-----------------|
D|-----------------| X2
A|-9-9-7h9-9-9-9-9-|
E|-----------------|

Chorus
G|-----------------------------------|
D|-------------------------9-9-12-11-| X3
A|-5-5-5-5-5-5-5-5-9-9-9-9-----------| 
E|-----------------------------------|

G|---------------------------------|
D|---------------------------------| 
A|-5-5-5-5-5-5-5-5-9-9-9-9-2-2-2-2-| 
E|---------------------------------|

Bass Solo
G|---9-----------|
D|-------12-11-9-| X3
A|-9---9---------|
E|---------------|

G|---9-------|
D|-------7-7-|
A|-9---9-----|
E|-----------|

Guitar Comes Back In
G|---9-----------|
D|-------12-11-9-| X4
A|-9---9---------|
E|---------------|

G|-----7---------|
D|-------9-9-9-9-| X2
A|-7-7-----------|
E|---------------|

G|---9-----------|
D|-------12-11-9-| X6
A|-9---9---------|
E|---------------|

G|-----7---------|
D|-------9-9-9-9-| X2
A|-7-7-----------|
E|---------------|

G|---9-----------|
D|-------12-11-9-| X2
A|-9---9---------|
E|---------------|

Chorus
G|---------------------------------|
D|---------------------------------| 
A|-5-5-5-5-5-5-5-5-9-9-9-9-2-2-2-2-| 
E|---------------------------------|

G|-----------------------------------|
D|-------------------------9-9-12-11-| X3
A|-5-5-5-5-5-5-5-5-9-9-9-9-----------| 
E|-----------------------------------|

G|---------------------------------|
D|---------------------------------| x4
A|-5-5-5-5-5-5-5-5-9-9-9-9-2-2-2-2-| 
E|---------------------------------|

G|-----9\-|
D|--------| 
A|-9-9----| 
E|--------|


Thats what I think it goes like.
Please rate it and email me if you have any problems, *

Adam Vaughan

h = Hammer On
\ = Slide Down
Otros videos de esta canción
    1 exhibiciones

    Afinação da cifra

    Afinador online

    Ops (: Contenido disponible solo en portugués.
    OK