Cifra Club

Círculo de amor

El Gran Silencio

Chords: Versão 4 (acoustic and electric guitars)
tone: C
E|---0-1-3-1-0-------------------0-1-3-1-0---------|
B|-------------3-1-0-------0-1-3-----------3-1-0---|
G|-3-----------------2-0-2-------------------------|
D|-------------------------------------------------|
A|-------------------------------------------------|
E|-------------------------------------------------|

E|-3-1-0------5-3-1-0-----7-5-3-1-0---------------|
B|------3-1-0---------3-1-----------3-1-0-1-------|
G|------------------------------------------------|
D|------------------------------------------------|
A|------------------------------------------------|
E|------------------------------------------------|

E|-------------------0-1-3-5-7-8-10-8-7-8-7-5-7-5-|
B|-------------0-1-3------------------------------|
G|---------0-2------------------------------------|
D|---0-2-3----------------------------------------|
A|-3----------------------------------------------|
E|------------------------------------------------|

E|-3-5-3-1-1-0------0-3-1-0---1-0-----0------------|
B|----------------1---------3-----3-1---3-1-0-3-1--|
G|--------------2----------------------------------|
D|-------------------------------------------------|
A|-------------------------------------------------|
E|-------------------------------------------------|

E|---------------|
B|-0--1-0---0-1--|
G|--2-----2------|
D|---------------|
A|---------------|
E|---------------|
00:00 / 00:00
Other videos of this song
Repeat
Other videos of this song
Composed by Cano hernandes
2 views
    • ½ Tone
    • A
    • Bb
    • B
    • C
    • Db
    • D
    • Eb
    • E
    • F
    • F#
    • G
    • Ab
  • Add to list
    00:00 / 00:00
    OK