Cifra Club

Círculo de amor

El Gran Silencio

Cifrado: Versão 3 (guitarra y guitarra eléctrica)
tono: G
1—-0--7--8--10--8--7-------------------------------7--8--10
B|--------------------10--8--7-----------7--8--10-----------|
G|------------------------------9--7--9---------------------|
D|----------------------------------------------------------|
A|----------------------------------------------------------|
E|----------------------------------------------------------|

E|--10--8--7----------10--8--7---------12--10--8--7---------|
B|-----------10--8--7----------10--8--7-------------10--8---|
G|----------------------------------------------------------|
D|----------------------------------------------------------|
A|----------------------------------------------------------|
E|----------------------------------------------------------|

E|--14-12-10--8--7----------------------7-8-10-12-14-15-17-15|
B|----------------10v-------------7-8-10---------------------|
G|-----------------------------7-9---------------------------|
D|-----------------------7-9-10------------------------------|
A|---------------------10------------------------------------|
E|-----------------------------------------------------------|

E|-14-15-14-12-14-12-10-12-10-8-8-7v--7-10-8-7--8-7----7--------|
B|-----------------------------------8--------10---10-8--10-8-7-|
G|----------------------------------9---------------------------|
D|--------------------------------------------------------------|
A|--------------------------------------------------------------|
E|--------------------------------------------------------------|

E|------------------------|
B|-10-8-7-----8-7----8| —7v-
G|---------9-------9------|
D|------------------------|
A|------------------------|
E|------------------------|
00:00 / 00:00
Otros videos de esta canción
Repetir
Otros videos de esta canción
Composición de Cano hernandes
7 exhibiciones
    • ½ Tono
    • A
    • Bb
    • B
    • C
    • Db
    • D
    • Eb
    • E
    • F
    • F#
    • G
    • Ab
  • Agregar a la lista
    00:00 / 00:00
    OK