Cifra Club

Duerme Soñando

El Gran Silencio

Cifrado: Versão 5 (guitarra y guitarra eléctrica)
Selo Cifra Club: esta cifra foi revisada para atender aos critérios oficiais da nossa Equipe de Qualidade.
tono: G

E|-10--9---7--5--4-|
B|-12--10--9--7--5-|
G|-----------------|
D|-----------------|
 Duer-me-so-ñan-do

E|-4---5--10--10---10---10---9---7---5---4---|
B|-5---7--12--12---12---12---10--9---7---5---|
G|-------------------------------------------|
D|-------------------------------------------|
  con-tus-o-jos-tan-ple-nos-des-pier-tos

E|-4---5--10--10---10---10---9---7---5---4---|
B|-5---7--12--12---12---12---10--9---7---5---|
G|-------------------------------------------|
D|-------------------------------------------|
  con-tu-co-ra-zón-lle-noy-ra-dian-te

                                 D D  E  D D  E  D D  E D
E|--7--5-44-2|-5---4---5----4--|-5-5--7--5-5--7--5-5--7-5--|
B|----------3|-7---7---7----7--|-7-7--9--7-7--9--7-7--9-7--|
G|-----------|--------------2--|-7-7--9--7-7--9--7-7--9-7--|
D|-----------|--------------0--|-7-7--9--7-7--9--7-7--9-7--|
A|-----------|-----------------|-5-5--7--5-5--7--5-5--7-7--|
Aluci-nan-te   tan lleno de amor


    D
La vida, la vida, la vida, qué es la vida
                   C
en tratar de entenderla se nos va la propia vida
                  D
tan simple, tan fuerte, tan llanamente suerte
            C
lo que acontece en preparación de la muerte.
 D
Pero es absurdo ocuparte de este estudio
     C
cada año, segundo a segundo,
            D
no es tan profundo dormir soñando
           C
es la respuesta, tal vez es errónea, tal vez es correcta
 D
sueña a la par del presente y no del futuro
 C
porque de esto nunca estás tan seguro
  D
acaba tus enojos, así sí ya eres libre,
  C
afuera tus despojos,
  D
llena tu maleta de responsabilidad
 C
deja para mañana tu personalidad
     D
mas si tú sientes una contradicción
     C
que el dormir te despierta y el despertar te duerme
      D
tal vez si lo dices no eres tan inteligente
     C
la gente sólo observa la ropa y los hechos
     D
mas nunca siente lo que hay dentro de sus pechos
     C
no existe entre ellos una real conexión
        D
pues creen tener siempre la razón
     C
la razón justa y procesadora
 D
de lo correcto que se hace cada hora
 C
pero en este sueño tú estás sumergido
 D
mas no te sientas nunca afligido
 C
porque con este sueño tú estás protegido
   D
y aunque te sientas un poco distante
   C
tu alma lo dice a cada instante.

CORO

  D       G
Duerme soñando
        D          C         G
con tus ojos tan plenos despiertos
        D        C         G
con tu corazón lleno y radiante
      C                    D
alucinante, tan lleno de amor,
           C              D
lleno de amor, lleno de amor,
           C     D
lleno de amor, hey!

(G  O) (se repiten acordes del coro)

 D
La vida, la vida, la vida, qué es la vida
     C
en tratar de entenderla se nos va la propia vida
    D
La vida, la vida, la vida, qué es la vida
    C
en tratar de entenderla se nos va la propia vida
   D
No estoy tan convencido de vivir en esta vida
   C
No estoy tan convencido de vivir en esta vida
   D
No estoy tan convencido de vivir en esta vida
   C
No estoy tan convencido de vivir...

(CORO) x2
           C  D D E D D E D
lleno de amor............hey!
================================
    C  D  G  E
E|--3--5--3--7-----|
B|--5--7--4--9-----|
G|--5--7--5--9-----|
D|--5--7--5--9-----|
A|--3--5--3--7-----|
E|--3--5--3--7-----|
Otros videos de esta canción
    0 exhibiciones
      • ½ Tono
      • A
      • Bb
      • B
      • C
      • Db
      • D
      • Eb
      • E
      • F
      • F#
      • G
      • Ab
    • Agregar a la lista

    Afinação da cifra

    Afinador online

      Ops (: Contenido disponible solo en portugués.
      OK