Cifra Club

Tonta canción de amor #4

El Gran Silencio

Cifrado: Versão 4 (guitarra y guitarra eléctrica)
Selo Cifra Club: esta cifra foi revisada para atender aos critérios oficiais da nossa Equipe de Qualidade.
tono: Em
        
 


esta es la introduccion en guitarra:
E|1--------------------------------------------|
B|2----------------------------------7---8-----10--|
G|3-------------------5----7-----9----------------|
D|4-----------5----7-----------------------------|
A|5---5-----7-----------------------------------|
E|6--------------------------------------------|


E|1----------------------------------------|
B|2---1010--10--10-/-8-8--8----7---8---7-------|
G|3---------------------------------------|
D|4-----------------------------------------|
A|5----------------------------------------|
E|6---------------------------------------|


E|1-----------------------------------------|
B|2-------------------------------------------|
G|3----9---7---------------7--9------7^8-----------|
D|4------------9---7----8--------------------|
A|5------------------------------------------|
E|6-------------------------------------------|

E|1--10-------------------------------------|
B|2------10---8-8----7---8---7--7----8---7---|
G|3------------------------------------------|
D|4-----------------------------------------|
A|5-----------------------------------------|
E|6-----------------------------------------|

E|1------------------------------------------|
B|2-----------------------------------7---8---7|
G|3---9---7------------------7----9-----------|
D|4-----------9----7----9-----------------------|
A|5------------------------------------------|
E|6-------------------------------------------|

E|1--------------------------------------------|
B|2---78--78---78---78---78---78----7---8---7|
G|3--------------------------------------------|
D|4--------------------------------------------|
A|5-------------------------------------------|
E|6--------------------------------------------|

E|1---------------------------------------------|
B|2--------------------------------7---8----10-|
G|3--9---7-----------------7----9---------------|
D|4----------9----7---9-------------------------|
A|5----------------------------------------------|
E|6-------------------------------------------------|

E|1--10---------10------------------------------|
B|2--------8-8--------7--8-7--------------------|
G|3-----------------------------9----7------------|
D|4--------------------------------------9---7---9-|
A|5--------------------------------------------|
E|6----------------------------------------------|

E|1---------------------------------------------|
B|2-----------7----8^10---10-10----8-8---7-8-7|
G|3---7---9---------------------------------------|
D|4----------------------------------------------|
A|5-----------------------------------------------|
E|6------------------------------------------------|

E|1----------------------------------------------|
B|2---------------------------------------------|
G|3----9---7--------------------------------------|
D|4--------------9------7-----------------------|
A|5------------------------------------------------|
E|6----------------------------------------------|

LLEVAME AL LUGAR C NDE SUSPIRAS EN A  NOCHE........


esta es la tablatura pero tiene de mi cosecha
hay cada uno de uds le ponen..... de su cosecha
por que yo la toco asi y esta bien nadamas que yo toco tiempos 
que no van pero ditodos modos uds no saben como la toco yo
asi que esta bien la tab y echenle ganas 
y un saludo a la colinia tablas del pozo
en la merita sierra de garralupe aca en ecatepunck
en el edo de mexico el edo de la carpinteria y los artesanos
y que viva el rock n' roll
auuuuuuuuuuu¡¡¡
Otros videos de esta canción
    1 exhibiciones
      • ½ Tono
      • Am
      • Bbm
      • Bm
      • Cm
      • C#m
      • Dm
      • Ebm
      • Em
      • Fm
      • F#m
      • Gm
      • G#m
    • Agregar a la lista

    Afinação da cifra

    Afinador online

      Ops (: Contenido disponible solo en portugués.
      OK