Cifra Club

The Eve

EXO

Cifrado: Principal (guitarra y guitarra eléctrica)
tono: Bb
C                               Eb  Ab
Ttokbaro bwa what's the situation
Ab                             Bb
Danghwanghan neoye shiseon neomeo
Bb       C
Kkeunnae muneojineun seongbyeok
Eb       Ab                      Bb   C
Chacheum balga oneun saebyeok yeah uh

C                       Eb  Ab
Kkeudeopshi ieojigo isseo
Ab                                 Bb
Mudin kallal kkeute jalla naeji motae
      C
Gesok banbokdweneun munje yeah
Eb     Ab
Micheo pulji motan sukje

        Bb       Cm
Nopeun byeok ape seureojideon
   Bb  Eb   Ab
Jakko yakan baram soriga
Bb         Cm
Dwieongkyeo pokpungcheoreom
Bbm  Eb     Ab           Bb
Morachineun soril deureo bwa

E|-----------------------------------------|
B|-----------------------------------------|
G|-----------------------------------------|
D|-5-5--5-5--5-7-8-7-5---------------------|  (4x)
A|-3-3--3-3--3-5-6-5-3--8-6-6--6-6--6-8----|
E|----------------------6-4-4--4-4--4-6----|

                   Cm
Kkaego buditcheoya hae
       Eb         Ab
Uril bol su ittorok
Bb               Cm
Keuge soricheoya hae
       Eb           Ab
Meolli beonjeo gadorok oh
       Bb        Cm
Yeorin bitteuri beonjeo ga
    Bb   Eb      Ab
Gin eodumeul da moranaen sungan
      Bb         Cm
Dashi kkaeeonaya hae uh
     Eb         Ab   Cm
Saeroweojin achime oh

Cm                    Eb     Ab
Omanhan shiseondeullo nal bwa
                           Bb
Imi dareun chulbalseon wie anja
Cm
Kkamadeukan geori yeah
Eb    Ab
Dachi aneul tteutan wechim

        Bb        Cm
Jitbalpin chaero jaranadeon
Bb     Eb    Ab
Ganjeolhan sumaneun kkumdeuri
   Bb      Cm
Boran deut damjang neomeo
Bb    Eb       Ab             Bb
Piweo naen punggyeongeul barabwa

E|-----------------------------------------|
B|-----------------------------------------|
G|-----------------------------------------|
D|-5-5--5-5--5-7-8-7-5---------------------|  (4x)
A|-3-3--3-3--3-5-6-5-3--8-6-6--6-6--6-8----|
E|----------------------6-4-4--4-4--4-6----|

                   Cm
Kkaego buditcheoya hae
       Eb         Ab
Uril bol su ittorok
Bb                Cm
Keuge soricheoya hae
       Eb           Ab
Meolli beonjeo gadorok ah
       Bb        Cm
Yeorin bitteuri beonjeo ga
    Bb   Eb      Ab
Gin eodumeul da moranaen sungan
      Bb        Cm
Dashi kkaeeonaya hae (dashi kkaeeonaya hae)
     Eb         Ab   Cm
Saeroweojin achime ah

Cm                     Bb           Eb
Waegokdweneun jinshil gareucheojin geojit
Ab                        Bb
Byeonhwaye moksori padoga ireo
Cm                 Bb       Eb      F         Gm
Jeonbu jibeosamkil badareul mandeun geon it's you

E|-----------------------------------------|
B|-----------------------------------------|
G|-----------------------------------------|
D|-5-5--5-5--5-7-8-7-5---------------------|  (4x)
A|-3-3--3-3--3-5-6-5-3--8-6-6--6-6--6-8----|
E|----------------------6-4-4--4-4--4-6----|

                   Cm
Kkaego buditcheoya hae
       Eb         Ab
Uril bol su ittorok
Bb                Cm
Keuge soricheoya hae (keuge soricheoya hae)
       Eb           Ab
Meolli beonjeo gadorok oh (meolli beonjeo gadorok)
       Bb        Cm
Yeorin bitteuri beonjeo ga
    Bb   Eb      Ab
Gin eodumeul da moranaen sungan
      Bb         Cm
Dashi kkaeeonaya hae
     Eb         Ab
Saeroweojin achime
Composición de Andrew Bazzi / Kevin Clark White / Lau Henry / Michael Clinton Woods / MZMC / Yu Bin Hwang
Colaboración y revisión:
  • Samh Lemos
145 vistas
    • ½ Tono
    • A
    • Bb
    • B
    • C
    • Db
    • D
    • Eb
    • E
    • F
    • F#
    • G
    • Ab
  • Agregar a la lista

    0 comentarios

    Ver todos los comentarios

    ¿Lograste tocar?

    0 Tocaron 0 Aún no

    ¡Graba un video tocando The Eve y envíanoslo!

    00:00 / 00:00
    Outros vídeos desta música
    Repetir Calidad Automático
    Outros vídeos desta música
    00:00 / 00:00
    Automático
    OK