Cifra Club

Monkey Wrench

Foo Fighters

Tab de bajo: Principal
Intro: 
G---------------------------------------------------------------- 
D---------------------------------------------------------------- 
A---------------------------7/9-9-7-7-7-7-7-7-7-7-7-7-7-5-7-5-7-5 
E-7-7-7-7-7-7-7-7-7-7-7-7-7-------------------------------------- 


G---------------------------------------------------------------- 
D---------------------------------------------------------------- 
A---------------------------7/9-9-7-7-7-7-7-7-7-7-7-7-7-5-7-5-7-5 
E-7-7-7-7-7-7-7-7-7-7-7-7-7-------------------------------------- 


Verse: "what have we done with innocence....." 
G---------------------------------------------------------------- 
D---------------------------------------------------------------- 
A---------------------------7/9-9-7-7-7-7-7-7-7-7-7-7-7-5-7-5-7-5 
E-7-7-7-7-7-7-7-7-7-7-7-7-7-------------------------------------- 


G---------------------------------------------------------------- 
D---------------------------------------------------------------- 
A---------------------------7/9-9-7-7-7-7-7-7-7-7-7-7-7-5-7-5-7-5 
E-7-7-7-7-7-7-7-7-7-7-7-7-7-------------------------------------- 
repeat through verse 


Break: " One in ten.... 
G---------------------------------------------------------------- 
D---------------------------------------------------------------- 
A-7-7-5-7-7-5-7-5-7-5---7-7-5-7-7-5-7-5-7-5---------------------- 
E---------------------------------------------------------------- 


G---------------------------------------------------------------- 
D---------------------------------------------------------------- 
A-7-7-5-7-7-5-7-5-7-5-------------------------------------------- 
E---------------------------------------------------------------- 


Chorus:  "don't wanna be your monkey wrench..." 
G---------------------------------------------------------------- 
D---------------------------------------------------------------- 
A-------9-10-11-11-11-9-11-9-7-7---9-7-7--9-7-------------------- 
E-7-7-7---------------------------------------8-7---------------- 
repeat through chorus 


Pre Bridge 
G---------------------------------------------------------------- 
D---------------------------------------------------------------- 
A----7----------------------------------------------------------- 
E-4-----7--3-3-3-3-3-3--2-0-0-0-0-0-2-0-0-0-0-0------------------ 
repeat 4 times then.. 


G---------------------------------------------------------------- 
D---------------------------------------------------------------- 
A---------------------------------------------------------------- 
E-2-0-0---2-0-0---2-0-0-2-0-0-2-0-0-2-0-8------------------------ 


Bridge:  "One last thing before I quit I never wanted..." 
G---------------------------------------------------------------- 
D---------------------------------------------------------------- 
A-14-14-14-14-14-14-14-14-14-14-14-14-14--9--9-7-7-7-7----------- 
E---------------------------------------------------------------- 


G---------------------------------------------------------------- 
D---------------------------------------------------------------- 
A-7-7-7-7-7-7-5-7-5-7-5------------------------------------------ 
E---------------------------------------------------------------- 
Repeat through bridge 


Bridge outro 
G---------------------------------------------------------------- 
D---------------------------------------------------------------- 
A-7-7-5-7-7-5-7-5-7-5---7-7-5-7-7-5-7-5-7-5---7-7-5-7-7-5-7-5-7-5 
E---------------------------------------------------------------- 


Play through entire chorus once....then outro with verse riff.  


_______________________________________________________
Contribuição: Caio Mac Cord(caiomaccord@hotmail.com)
Composición de Foo Fighters
123 vistas

0 comentarios

Ver todos los comentarios
00:00 / 00:00
Outros vídeos desta música
Repetir Calidad Automático
Outros vídeos desta música
00:00 / 00:00
Automático
OK