Cifra Club

Me Atraiu

Gabriela Rocha

Cifrado: Principal (guitarra y guitarra eléctrica)
Selo Cifra Club: esta cifra foi revisada para atender aos critérios oficiais da nossa Equipe de Qualidade.
tono: G
[Intro] C7M  D9(11)  Bm7(11)  C7M 

[Tab - Intro]

   C7M        D9(11)    Bm7(11)
E|-------7----------10----------------------|
B|-----8----------7-------------8/10--------|
G|-7/9--------5/7--------4/7-7--------------|
D|------------------------------------------|
A|------------------------------------------|
E|------------------------------------------|

        C7M
E|------------------------------------------|
B|-8-10-12-10-8-----------------------------|
G|--------------9---------------------------|
D|------------------------------------------|
A|------------------------------------------|
E|------------------------------------------|

[Primeira Parte]
  
Eu poderia estar
                   D9(11)
Em qualquer outro lugar
                  Bm7(11)
Mas Tua glória me atraiu
                C7M
Tua presença me atraiu

Tentei me esconder
                 D9(11)
Por medo de não viver
                  Bm7(11)
Mas Tua glória me atraiu
                C7M
Tua presença me atraiu

[Refrão]

         C9
É que a sarça pegou fogo

E não se consumiu
     D 
E a voz que saiu dela

Um dia me atraiu
         Bm7(11)
E o meu coração queimou

Até que descobriu
        Em
Que um dia com Tua glória
      D
Vale mais que mil

         C9
É que a sarça pegou fogo

E não se consumiu
     D 
E a voz que saiu dela

Um dia me atraiu
         Bm7(11)
E o meu coração queimou

Até que descobriu
        Em   
Que um dia com Tua glória
    D
Um dia com Tua glória
      C7M   C7M(5-)  C7M
Vale mais que       mil

[Solo 1] D9(11)  Bm7(11)  C7M

[Tab - Solo 1]

E|------------------------------------------|
B|-5-7-7/8--7---8-7/3--5/7-5--10/12---------|
G|------------------------------------------|
D|------------------------------------------|
A|------------------------------------------|
E|------------------------------------------|

[Primeira Parte]

Eu poderia estar
                   D9(11)
Em qualquer outro lugar
                  Bm7(11)
Mas Tua glória me atraiu
                C7M
Tua presença me atraiu

Tentei me esconder
                 D9(11)
Por medo de não viver
                  Bm7(11)
Mas Tua glória me atraiu
                C7M
Tua presença me atraiu, Deus

[Refrão]

         C9
É que a sarça pegou fogo

E não se consumiu
     D 
E a voz que saiu dela

Um dia me atraiu
         Bm7(11)
E o meu coração queimou

Até que descobriu
        Em
Que um dia com Tua glória
      D
Vale mais que mil

         C9
É que a sarça pegou fogo

E não se consumiu
     D 
E a voz que saiu dela

Um dia me atraiu
         Bm7(11)
E o meu coração queimou

Até que descobriu
        Em   
Que um dia com Tua glória
    D
Um dia com Tua glória
      C7M   C7M(5-)  C7M
Vale mais que       mil
 
[Solo 2] D9(11)  Bm7(11)  C7M

[Tab - Solo 2]

E|------------------------------------------|
B|-5-7-7/8--7---8-7/3--10-10/12-------------|
G|------------------------------------------|
D|------------------------------------------|
A|------------------------------------------|
E|------------------------------------------|

E|----10-12-10------------------------------|
B|-12----------12-10-12---------------------|
G|----------------------9-------------------|
D|------------------------------------------|
A|------------------------------------------|
E|------------------------------------------|

[Ponte 1]

( D9(11)  Em  G7M(5) )

C7M           D9(11)
Atraído pela Tua presença
 Em                G7M
Não me vejo sem a Tua presença
C7M           D9(11)
Atraído pela Tua presença
 Em                 G7M 
Não me cansarei da Tua presença

C7M           D9(11)
Atraído pela Tua presença
 Em                G7M
Não me vejo sem a Tua presença
C7M           D9(11)
Atraído pela Tua presença
 Em                 G7M 
Não me cansarei da Tua presença

[Refrão]
         
É que a sarça pegou fogo

E não se consumiu
     D 
E a voz que saiu dela

Um dia me atraiu
         Bm7(11)
E o meu coração queimou

Até que descobriu
        Em
Que um dia com Tua glória
      D
Vale mais que mil

         C9
É que a sarça pegou fogo

E não se consumiu
     D 
E a voz que saiu dela

Um dia me atraiu
         Bm7(11)
E o meu coração queimou

Até que descobriu
        Em   
Que um dia com Tua glória
    D
Um dia com Tua glória
      C7M   C7M(5-)  C7M
Vale mais que       mil

( D9(11)  Bm7(11)  C7M )
( C7M  D9(11)  Bm7(11)  C7M )

[Ponte 2]

Essa chama não se apaga e não se apagará
       D9(11)
Essa chama não se apaga e não se apagará
       Bm7(11)
Essa chama não se apaga e não se apagará
       C7M
Essa chama não se apaga e não se apagará

Essa chama não se apaga e não se apagará
       D9(11)
Essa chama não se apaga e não se apagará
       Bm7(11)
Essa chama não se apaga e não se apagará
       C7M
Essa chama não se apaga e não se apagará

[Final] D9(11)  Bm7(11)  C7M
Otros videos de esta canción
    4.290.835 exhibiciones
    • Simplificar cifrado
      • ½ Tono
      • A
      • Bb
      • B
      • C
      • Db
      • D
      • Eb
      • E
      • F
      • F#
      • G
      • Ab
    • Agregar a la lista

    Afinación de cifrado

    Afinador online

      Capítulos
      • Apresentação
      • Tocando a Música
      • Acordes da Intro
      • Tocando a Intro
      • Ensinando o Ritmo da Intro
      • Ensinando o Riff da Intro
      • Dicas da Primeira Parte
      • Ensinando a Primeira Parte
      • Acordes do Refrão
      • Tocando o Refrão
      • Ensinando o Refrão
      • Ensinando o Solo 1 do Refrão
      • Dicas da Repetição da Primeira Parte
      • Tocando a Repetição da Primeira Parte
      • Ensinando a Repetição da Primeira Parte
      • Dicas do Segundo Refrão
      • Tocando o Segundo Refrão
      • Ensinando o Solo 2 do Refrão
      • Acordes da Ponte
      • Tocando a Ponte 1 da Música
      • Ensinando a Ponte 1 da Música
      • Dicas do Último Refrão
      • Tocando o Último Refrão
      • Dicas da Ponte 2
      • Tocando a Ponte 2
      • Encerramento
      OK