Cifra Club

Aprenda

Civil War

Guns N' Roses

Tablatura: Versão 5 (guitarra)
Tom: F#
1\---9--6----------------
2\--------7-8-9----------
3\-----------------------
4\-----------------------
5\-----------------------
6\-----------------------

1\---9--6---------------
2\---------7-8-9-9-7-6--
3\----------------------
4\----------------------
5\----------------------
6\----------------------
Compositor Axl Rose / Duff McKagan / Slash
Colaboración y revision:
  • Rener Wiliam
79 reproducciones
    • ½ Tom
    • A
    • Bb
    • B
    • C
    • Db
    • D
    • Eb
    • E
    • F
    • F#
    • G
    • Ab
  • Adicionar à lista

    0 comentarios

    Mostrar mais comentários

    ¿Conseguiste tocar?

    0 Tocaron 0 Ainda não

    Grave um vídeo tocando Civil War e mande pra gente!

    00:00 / 00:00
    outros vídeos desta música
    repetir qualidade Automático
    Outros vídeos desta música
    00:00 / 00:00
    Automático
    OK