Cifra Club

Aprenda

Civil War

Guns N' Roses

Tablatura: Versão 4 (guitarra)
Tom: C
Lembrando que sua Guitarra devera estar afinada em Eb.

intro:
Em                   G
-----------------------------------------
-----------------------------------------
-----0--------0----------0--------0------
---2--2-2---2--2---0---0--0-0---0--0---0-
--2-2--2---2-2--0h2---2-2--2---2-2--0h2--
-0--------0----------3--------3----------

Em                   G        A#4
-----------------------------------------
-----------------------------------------
-----0--------0----------0---------2-0-0-
---2--2-2---2--2---0---0--0-0---0-----0--
--2-2--2---2-2--0h2---2-2--2---0-0-------
-0--------0----------3--------2----------

Em           G             Em          G             A#4
-12----10------------------12----10------------------------
-------------10--11--12----------------10--11--12----10----
-----------------------------------------------------------
-----------------------------------------------------------
-----------------------------------------------------------
-----------------------------------------------------------

verso
Em                   G
-----------------------------------------
-----------------------------------------
-----0--------0----------0--------0------
---2--2-2---2--2---0---0--0-0---0--0---0-
--2-2--2---2-2--0h2---2-2--2---2-2--0h2--
-0--------0----------3--------3----------
look at... fighting/ look at...crying

Em                    G        A#4
------------------------------------------
------------------------------------------
-----0--------0-----------0---------2-0-0-
---2--2-2---2--2---0----0--0-0---0-----0--
--2-2--2---2-2--0h2----2-2--2---0-0-------
-0--------0-----------3--------2----------
look at... dying/     the way... before

Em                   G
------0---------0---------0-------------0-
---5---5-5---5---5-5---3---3--3---3----3--
--4-4---4---4-4---4---4----------4----0---
-5---------5---------5---5---5--5--5-4----
------------------------------------------
------------------------------------------
(2x)

Em                   G
-----------------------------------------
-----------------------------------------
-----0--------0----------0--------0------
---2--2-2---2--2---0---0--0-0---0--0---0-
--2-2--2---2-2--0h2---2-2--2---2-2--0h2--
-0--------0----------3--------3----------
look at... breeding/ look at... feeding

Em                   G        A#4
-----------------------------------------
-----------------------------------------
-----0--------0----------0---------------
---2--2-2---2--2---0---0--0-0---0--------
--2-2--2---2-2--0h2---2-2--2---0---------
-0--------0----------3--------2----------
look at... leading/  the way... before

A5                              A#4 A5
----------0-------0--------3-0--0-------3-2----
------5---4--------4------------4------3---3s5-
-2-2---2-------2--------2-------------2--------
-2--2---5-----4-4------4-5-----5-----4---------
-0-----------0--------0-------------0----------
-----------------------------------------------

E5                     G5
My hands are tied, the billions shift from side to side
        E5
And the wars go on with brainwashed pride
        G5                  D/F#
for the love of god and our human rights.
    E5
and all these things are swept aside
   G5
by bloody hands time can't deny
    E5
and are washed away by your genocide
    G5                D/F#
and history hides the lies of our civil wars

 A9      B/D     G       A9
---------------------------------
-0-------4-------0-------0-------
-2-------4-------0-------2-------
-2-------0-------0-------2-------
-0-----------------------0-------
---------------------------------

SOLO 1: é feito com pedal wah wah

 E5                       G5        D/F#
---0-----0-3b--0-----0------------------
----0-3b---3b---0-3b--0---8-------------
-2b--------------------0--7---------2---
------------------------------2s4---2---
----------------------------------------
----------------------------------------

 E5                       G5    D/F#
---0-----0-3b--0-----0------------------------
----0-3b---3b---0-3b--0---8---8-7h8p7---------
-2b--------------------0--7----------9-7------
-----------------------------------------7v---
----------------------------------------------
----------------------------------------------

 E5                       G5
---0-----0-3b--0-----0--------------------------
----0-3b---3b---0-3b--0---8-6-7-8-10s11s12s13---
-2b--------------------0--7-5-6-7-09s10s11s12---
------------------------------------------------
------------------------------------------------
------------------------------------------------

 E5                       G5       D/F#
---0-----0-3b--0-----0----------------------
----0-3b---3b---0-3b--0------------3--------
-2b--------------------0-----------2--------
--------------------------5--------0--------
--------------------------5--------0--------
--------------------------3--------2--------FIM DO SOLO

G                           Bm
d'you wear a black amrband, when they shoot the man
          Em
who said "PEACE COULD LAST FOREVER"
       G                 Bm7
and in my first memories they shoot kenedy
    Em                 C           D
and i went numb when i learned too see.
G               Bm              Em
so i never fell for vietnam, we got the wall of D.C to remind us all
G                            Bm7
that you can't trust freedom when it's not in your hands
E5                                  C5       D5
when everybody's fighting for their promised land.

Refrão:

G5          B5                 E5
and I don't need your civil war
G5           B5                        E5   C5 D5
it feeds the rich while buries the poor
G5          B5
your power hungry sellin' soldiers
E5
In a human grocery store, ain't that fresh
G5       B5               E5
i don't need you civil war
           C5   D5
oh no no no no no no no

SOLO 2:

---------------------------------------------------------------------
--------15-----------------------------------------------15/---------
--14b16----16r14-12-14~--12-14-14b16r14-12---------------------------
--------------------------------------------14-14~-------------------
---------------------------------------------------------------------
---------------------------------------------------------------------


-------------------------------------------------------5-------------
-----3----------3----------3/5-5-3h5p3\1-3-1-0-0--8b10---8-7-7b9r7~--
-2b4--4r2-0-2/4--4\2-0-2-0--------------------0----------------------
---------------------------------------------------------------------
---------------------------------------------------------------------
---------------------------------------------------------------------

---------8b10-8787-5h7p5-5-5-----------------------------------------
-7p5---5----------------8----------------15-----------------15-15b17~
-----7-----------------------9-7~---14b16--16-16r14-12-14/16---------
---------------------------------------------------------------------
---------------------------------------------------------------------
---------------------------------------------------------------------

-12--------------------------------------------------------------------
----15-12----------------------------------------------------------------
----------14b16r14-12----------------------------------------------------------
----------------------14-14-12---------------------------------------------
-------------------------------14p12\10-12-10-12b14r12-10---------------------------------
----------------------------------------------------------12-10-12---------



Em
look at the shoes you're filling\
G                                \
look at the blood we're spilling  \
Em                                 \
look at the world we're killing     \
G                    D/F#            \
the way we've always done before      \
Em                                     \
look in the doubt we've wallowed       /essas notas sao
G                                     /dedilhadas do mesmo
look at the leaders we've fallowed   /modo da intro!.
Em                                  /
look at the lies we've swallowed   /
G                   D/F#          /
and i don't want to hear no more./

A5                              A#4 A5
----------0-------0--------3-0--0-------3-2----
------5---4--------4------------4------3---3s5-
-2-2---2-------2--------2-------------2--------
-2--2---5-----4-4------4-5-----5-----4---------
-0-----------0--------0-------------0----------
-----------------------------------------------

E5                 G5
my hands are tied, for all I've seen has changed my mind
E5
but still the wars go on as the years go by
G5                     D/F#
with no love of God or human rights
E5
'cause all these dreams are swept aside
G5                                 E5
by bloody hands of the hipnotized, who carry the cross of homicide
G5                    D/F#
and history bears the scars of our civil war.

A9        B/D      G        A5
-------------------------------------
-0--------4--------0-----------------
-2--------4--------0--------2--------
-2--------0--------0--------2--------
-0--------------------------0--------
-------------------------------------

SOLO 3: feito com pedal wah wah

 E5                        G5                            D/F#
----0------0-3b--0-----0---3---------------------------------
-----0-3b----3b---0-3b--0--3--5-8p5-7h8p7p5--5---------------
-2b----------------------0---------------------4-7p4-3-4-7p4-
--------------------------------------------7----------------
-------------------------------------------------------------
-------------------------------------------------------------

 E5                       G5          D/F#
----0------0-3b--0----0------------------------------
-----0-3b----3b---0-3b-0--8-8-7h8p7s5-7s8s9s10s11s12-
-2b---------------------0-7--------------------------
-----------------------------------------------------
-----------------------------------------------------
-----------------------------------------------------

 E5                       G5
----0------0-3b--0----0------------------------------
-----0-3b----3b---0-3b-0--3--------------------------
-2b---------------------0-2b-------------------------
-----------------------------------------------------
-----------------------------------------------------
-----------------------------------------------------


----0------0-3b--0----0---------------------
-----0-3b----3b---0-3b-0-----------3--------
-2b---------------------0----------2--------
--------------------------5--------0--------
--------------------------5--------0--------
--------------------------3--------2--------

 A                      B/A                C/A
"we practice selective annihilation of mayors
      D/A                    F/A
and government officials for exemple to create a vaccuum
                  C/A
then we fill the vacuum, as a popular war advances

peace is closer."

FAÇA O Refrão E,

SOLO 4:

G5                        B5
---------------------------------------------------------
----12-15--12-15--12-12-15--12-15---12-15--12-15---12-15-
-14b-----14-----14--------14-----14b-----14-----14b------
---------------------------------------------------------
---------------------------------------------------------
---------------------------------------------------------

 E5
-------------------------------------------------------
----15------15--12---12-15---12-15---12-15------15--12-
-14b--14b-14--14--14b-----14b-----14b-----14b-14--14---
-------------------------------------------------------
-------------------------------------------------------
-------------------------------------------------------

                     G5                         B5
---------------------12---12-------------------------
-15p12--12-15b-15b-----15b--15p12--15-12-13h15p13p12-
------14-------------------------12------------------
-----------------------------------------------------
-----------------------------------------------------
-----------------------------------------------------

                             E5
-----------------------------15b-15b-15-14-15-14h15p14p12----
---12--------------------------------------------------------
-15--15-14-14b-14p12---14--12--------------------------------
---------------------14--14----------------------------------
-------------------------------------------------------------
-------------------------------------------------------------

     C5               D5                                        E5
-15--12h14p12--12-14b-14s-------20b---20-19-20-19h20p19p17-19-17----
---15--------15-----------s15-17---20b--------------------------19b-
--------------------------------------------------------------------
--------------------------------------------------------------------
--------------------------------------------------------------------
--------------------------------------------------------------------

                                            G5           B5
---------------------------12---------------17b-17-15-17-17-17-15-17-15-17b-
-19-17-19b-19p17--17-15b-15--15-12------------------------------------------
----------------16----------------14-14-12----------------------------------
------------------------------------------14--------------------------------
----------------------------------------------------------------------------
----------------------------------------------------------------------------

     E5                       C5         D5
-15-17-15-17b-15b---------------12--------------
-----------------17-15h17-15b-15--15-12---------
---------------------------------------14--12---
-----------------------------------------14--14-
------------------------------------------------
------------------------------------------------
Compositor Axl Rose / Duff McKagan / Slash
Colaboración y revision:
  • Jhonatan
  • Paulo Rocha
  • Wilton Filho
110 reproducciones
    • ½ Tom
    • A
    • Bb
    • B
    • C
    • Db
    • D
    • Eb
    • E
    • F
    • F#
    • G
    • Ab
  • Adicionar à lista

    0 comentarios

    Mostrar mais comentários

    ¿Conseguiste tocar?

    3 Tocaron 2 Ainda não

    Grave um vídeo tocando Civil War e mande pra gente!

    00:00 / 00:00
    outros vídeos desta música
    repetir qualidade Automático
    Outros vídeos desta música
    00:00 / 00:00
    Automático
    OK