Cifra Club

Dead Horse

Guns N' Roses

Tablatura: Principal
reproducciones 6.431
Tono: D# (con acordes en la forma de E) Afinación: Eb Ab Db Gb Bb Eb
      A         B         G#m       A     G#m A G#m A         B          E
E|------------------------------------------------------------------------------| 
B|------------------------------------------------------------------------------|  
G|------------------------------------------------------------------------------|   
D|---7--7---7--9--9---9--6--6---6--7--7---6--7--6--7--7---7--9--9---9--2--2-----|    
A|---7--7---7--9--9---9--6--6---6--7--7---6--7--6--7--7---7--9--9---9--2--2-----|         
E|---5--5---5--7--7---7--4--4---4--5--5---4--5--4--5--5---5--7--7---7--0--0-----|     
                                                                                     
E|-----------------------------------------|
B|-----------------------------------------|
G|-----------------------------------------|
D|-----------------------------------------|                                                           
A|--4--4---5--5---6--6---------------------|                                                          
E|--2--2---3--3---4--4---------------------|  
                                                       

 A                 B   G#m                A
Sick of this life,    not that you'd care
               A        E
I'm not the only one   with whom these feelings I share
 A            B    G#m                  A
Nobody understands     quite why we're here
                    B       E
We're searchin' for answers   that never appear
 A                 B                G#m                     A
But maybe if I looked real hard I'd,   I'd see ya tryin' to
          B             E
To understand this life,   that we're all goin' through

[A B G#m A B E A B E]

[Passagem]

E|------5-5----7-7---4-4----5--------5-4-2--------5-5----7-7----4--5--4---|
B|------5-5----7-7---4-4------5---5---------------5-5----7-7----5--5--5---|
G|--- 6----- 8-----4----- 6-----6-------------- 6----- 8--------4--4--4---|
D|------------------------------------------------------------------------|
A|------------------------------------------------------------------------|
E|------------------------------------------------------------------------|

Then when she said she was gonna like wreck
my car i didn't know what to do woh!

Riff:

E|------------------------------------|
B|------------------------------------|
G|------------------------------------|       
D|------------------------------------|
A|---7-7-9-7--7-9-7---2-2-4-2--2-4-2--|
E|---5-5-5-5--5-5-5---0-0-0-0--0-0-0--|

E|------------------------------------|
B|------------------------------------|
G|------------------------------------|
D|------------------------------------|
A|---2--2--4--4---5--5---6--6---------|
E|---0--0--2--2---3--3---4--4---------|

E|----------------------------------4---4---4--4----x-x------|
B|----------------------------------2---2---2--2----x-x------|
G|----------------------------------4---4---4--4----x-x------|
D|----------------------------------2-2-2-2-2--2-2--x-x------|
A|---7-7-9-7--7-9-7---2-2-4-2---------2---2------2--x-x------|
E|---5-5-5-5--5-5-5---0-0-0-0---------0---0------0--x-x------|


 A                         E
Sometimes I feel like I'm beating a dead horse
    A                       E
And I don't know why you'd be bringing me down
     A                             E
I'd like to think that our love's worth a tad more      CHORUS
A                              E
It may sound funny but you'd think by now
         F#m    G#m A                              E
I'd be smiling,      I guess some things never change
 A   E               A
Woh,      never change

              B     G#m                       A
I met an old cowboy,    I saw the look in his eyes
                         B                    E
Something tells me he's been here before cause, experience makes you wise
A              B                    G#m                    A
I was only a small child when the thought first came to me
                                   B
That I'm the son of a gun and the gun of a son that
  E
Brought back the devil in me

  C#m                         F#m          C#m                F#m
I aint  quite what you'd call an old soul still wet behind the ears
         C#m                F#m                   A
I been around this track a couple of times but now
                          B
The dust is starting to clear_______ oh_______  yeah!

[A E A E A]

[Solo]

E|-------------------------------------------------------------------0----|
B|------14b16r14p12-----9 10~-------------12-----0-9 10~-------------0----|
G|------------------14--------11b12r11--9----9-----------11b12r11--9-10b~-|   
D|------------------------------------------------------------------------|
A|------------------------------------------------------------------------|
E|------------------------------------------------------------------------|

E|---------------------------------------------9-9b11r9-------------------|
B|-----0-9 10-10----------12----0-10b-10b~--12----------12----------------|
G|---------------13r11--9----9--------------------------------------------|     
D|------------------------------------------------------------------------|
A|------------------------------------------------------------------------|
E|------------------------------------------------------------------------|

E|------------------------------9-12-----14b16r14-14-14~------------------|
B|----11-11p9-------9-12b14~-12------9-------------------0-12b14----------|
G|------------11-11-------------------------------------------------------|  
D|------------------------------------------------------------------------|
A|------------------------------------------------------------------------|
E|------------------------------------------------------------------------|

E|--9----12b14--9---------9----12--9-------19-19~--19-21-21b23~~----------|
B|---12-9--------12-9-12---12-9-----12-9----------------------------------|
G|------------------------------------------------------------------------|     
D|------------------------------------------------------------------------|
A|------------------------------------------------------------------------|
E|------------------------------------------------------------------------|

E|------------------------------------------------------------------------|
B|---------------------19-------------------------------------------------|
G|---16-18-18-18b19-16-18-16----18-18b19-18-16-18-16-14~--13~---11b13---9~|    
D|------------------------------------------------------------------------|
A|------------------------------------------------------------------------|
E|------------------------------------------------------------------------|

A5                          E5                         A5
I'd like to think that our love's worth a tad more it may sound
           E5                    A5     E5               A5
Funny but you'd think by now i'd be smiling Ooh yeah i'd be smilin'

E|-----------------------------------------------------------------------|
B|---------------12-------------------------19-17-16-17-16---------------|
G|---9b11--9-9 13-----------------9 11--9~-------------------------------|
D|------------------14b16-16r14------------------------------------------|
A|-----------------------------------------------------------------------|
E|-----------------------------------------------------------------------|

E|-----------------------------------------------------------------------|
B|----------19-----------------------19----------------------------------|
G|----18b20----20r18-16-18-16--18b20---16-----16-14b16-14~---------------|
D|-----------------------------------------18----------------------------|
A|-----------------------------------------------------------------------|
E|-----------------------------------------------------------------------|
A                 B  G#m                  A
  Sick of this life,    not that you'd care
              B       E
  I'm not the only one   with whom these feelings I share
Acordes para:
    Compositor: Axl RoseColaboración y revision:
    • Filipe Vidal
    • gustavo pereira

    0 comentarios

      mostrar más comentarios

      ¿Conseguiste tocar?

      26tocaron1aún no

      ¡Graba un vídeo tocando Dead Horse y envianoslo!

      00:00 / 00:00
      outros vídeos desta música
      repetirqualidadeautomática
      Outro vídeos desta música
        00:00 / 00:00
        automática
        OK