Cifra Club

Aprenda

Since I Don't Have You

Guns N' Roses

Tablatura: Versão 6 (guitarra)
tono: G
Intro:  G C D G C D G Cm Am D
      (G Em Am Cm G Em G C Am D)

D |--------4----1----1--4-1---|-----1-4-1---0-4---0------|
A |------1-4--4-1---1-------1-|---2-------2----2------2--|
E |----2----------2-----------|-4-------------------2----|

D |-----------4--------1-4-1--|------4--------1-----1----|
A |-------1-4--4-1---1--------|--1-4---4-1-2-------2-----|
E |------2---------2---------4|-2---------------2------2-|

D |---------1-4-1----1-4-1----|--3------3-------------3--|
A |-------2-------2-2------2--|---4----4-----4------4----|
E |------4---------4----------|----4-----------4---------|

D |-----------4----------4----|---0---0-4---3-------3----|
A |-------1-4---4-1---1-4-4-1-|--2---2-------4----4---4--|
E |-----2-----------2---------|-----2----------4---------|

G           Cm               D
I don’t have   plants and schemes
     G         Cm             D
And I don’t have  hopes and dreams
G        Cm           Am
I don’t have anything since
              D
I don’t have you
     G      Cm            D
And I don’t have found desires and
G       Cm         D
I don’t have happy hours
G        Cm           Am
I don’t have anything since
                       G
I don’t, I don’t have you, I don’t have happiness and
       Am              G
I guess I never will again
Am                        G
  When you were not on me, in walked on misery
Am
And it’s been here since then

Solo: G Cm D G Cm D
Yeah G Cm Am D

Yeah, you’re fall
G           Cm             D
I don’t have   letters, yeah
     G          Cm          D
And I don’t have   one who cares
G       Cm            Am
I don’t have anything since
              D
I don’t have you

(G Em Am D)
You, you, you, oh, oh, oh (4x)
You, you, oh…
yeah
Composição de Joe Rock / Lennie Martin
Colaboración y revision:
  • Eduardo Favarin
36 reproducciones
    • ½ Tono
    • A
    • Bb
    • B
    • C
    • Db
    • D
    • Eb
    • E
    • F
    • F#
    • G
    • Ab
  • Adicionar à lista

    0 comentarios

    Ver todos os comentários

    ¿Conseguiste tocar?

    0 Tocaram 0 Ainda não

    Grave um vídeo tocando Since I Don't Have You e nos envie!

    00:00 / 00:00
    outros vídeos desta música
    repetir qualidade Automático
    Outros vídeos desta música
    00:00 / 00:00
    Automático
    OK