Cifra Club

Aprenda

Since I Don't Have You

Guns N' Roses

Tablatura: Versão 2 (guitarra)
tono: G
Album: The Spaghetti Incident?
Guitarra Solo:
e|-------------------------------------|--------------------------|
B|-------------------------------------|--------------------------|
G|-----17^-----------------------------|-----17^^-----------------|
D|---------19b--17-19--17h19p17p1513~--|-----------19b--17-19-----|
A|--17---------------------------------|-17-----------------------|
E|-------------------------------------|--------------------------|

e|-------------------|--------------------------------------------|
B|-------------------|---17^^--17--15h17p1513~--------------------|
G|-------------------|---------------------------15--13--17^^-----|
D|--17h19p17p1513~---|--------------------------------------------|
A|-------------------|--------------------------------------------|
E|-------------------|--------------------------------------------|

e|-------------------|--------------------------------------------|
B|-------------------|--------------------------------------------|
G|--15h17p15p1311~---|--------------------------------------------|
D|-------------------|----13--h15p13---13--15/17--19-19-19--------|
A|-------------------|--------------------------------------------|
E|-------------------|--------------------------------------------|

e|---------------------------------------------------------------|
B|---------------------------------------------------------------|
G|---------------------------------------------------------------|
D|---17-17-17---15b--13------------------------------------------|
A|-----------------------17--15----------------------------------|
E|---------------------------------------------------------------|


Intr:G,C,D,G,C,Cm,G,Cm,Am,D
     (G,Em,Am,Cm,G,Em,G,C,Am,D)

 G       Cm               D
I don't have plans and schemes,
     G       Cm              D
And I don't have hopes and dreams.
 G             Cm          
I, I, I don't have anything,
 Am                 D
Since I don't have you.
 G          Cm          D      
And I don't have fond desires,
     G       Cm         D
And I don't have happy hours.
 G       Cm
I don't have anything,
 Am                 D
Since I don't have you.               
Happiness and I guess
 Am                G
I never will again.
 Am                       G
When you walked out on me,
In walked old misery,
 Am                        D
And she's been here since then.

SOLO: 

                   G   Cm Am D
(spoken) Yeah, we're fucked!
 G        Cm         D
I don't have love to share,
    G       Cm             D
And I don't have one who cares.
 G       Cm 
I don't have anything,
 Am                 D
Since I don't have you.
 (G,Em,Am,D)
You, you, you, oh, oh!
You, you, you, oh, oh!
You, you, you, oh, oh!
You, you, you, oh yeah!
Composição de Joe Rock / Lennie Martin
Colaboración y revision:
  • Marco Markitto
182 reproducciones
    • ½ Tono
    • A
    • Bb
    • B
    • C
    • Db
    • D
    • Eb
    • E
    • F
    • F#
    • G
    • Ab
  • Adicionar à lista

    0 comentarios

    Ver todos os comentários

    ¿Conseguiste tocar?

    3 Tocaram 0 Ainda não

    Grave um vídeo tocando Since I Don't Have You e nos envie!

    00:00 / 00:00
    outros vídeos desta música
    repetir qualidade Automático
    Outros vídeos desta música
    00:00 / 00:00
    Automático
    OK