Cifra Club

Aprenda

Since I Don't Have You

Guns N' Roses

Tablatura: Versão 4 (guitarra)
tono: G
(intro)

E|---------------------------------------------------------|
B|------13b---10b-8-----10-----11-10-8---------------------|
G|---------------------------------------8-7---------------|
D|--12-----------------------------------------------------|
A|---------------------------------------------------------|
E|---------------------------------------------------------|

E|---------------------------------------------------------|
B|------13b-13b---10b-8-----10-----11-10-8-----------------|
G|------------------------------------------8-7------------|
D|--12-----------------------------------------------------|
A|---------------------------------------------------------|
E|---------------------------------------------------------|

E|-------14b-14b-14b---12-14-12-10-------------------------|
B|-----------------------------------10-8---10-----11-10-8-|
G|-12-------------------------------------------------10-8-|
D|---------------------------------------------------------|
A|---------------------------------------------------------|
E|---------------------------------------------------------|

E|---------------------------------------------------------|
B|--------------------------10-----------------------------|
G|----9----9-11-9----9-11------11--9b---9b---7-----7---9--7|
D|-----------------------------------------------9---------|
A|---------------------------------------------------------|
E|---------------------------------------------------------|

G         Cm      D
I don't have plans and schemes
  G        Cm       D
And I don't have hopes and dreams.
G        Cm
I don't have anything
Am         D
Since I don't have you.
  G        Cm    D
And I don't have fond desires
  G        Cm     D
and I don't have happy hours.
G        Cm
I don't have anything
Am             D
Since I don't have you.
D          D
Happiness  and I guess
Am          G
I never will again.
Am
When you walked out on me
G
In walked ol' misery
Am              D
And he's been here since then.

(Yeah  we're f****d!)

(solo)
E|-------------------------------------|--------------------------|
B|-------------------------------------|--------------------------|
G|-----19^-----------------------------|-----19^^-----------------|
D|---------21b--19-21--19h21p19p17\15~-|-----------21b--19-21-----|
A|--17---------------------------------|-17-----------------------|
E|-------------------------------------|--------------------------|

E|-------------------|--------------------------------------------|
B|-------------------|---19^^--19--17h19p17\15~-------------------|
G|-------------------|---------------------------17--15--19^^-----|
D|--19h21p19p17\15~--|--------------------------------------------|
A|-------------------|--------------------------------------------|
E|-------------------|--------------------------------------------|

E|-------------------|--------------------------------------------|
B|-------------------|--------------------------------------------|
G|--17h19p17p15\13~--|--------------------------------------------|
D|-------------------|----15--h17p15---15--17/19--21-21-21--------|
A|-------------------|--------------------------------------------|
E|-------------------|--------------------------------------------|

E|----------------------------------------------------------------|
B|----------------------------------------------------------------|
G|----------------------------------------------------------------|
D|---19-19-19---17b--15-------------------------------------------|
A|----------------------19--17------------------------------------|
E|----------------------------------------------------------------|

( G  Cm  D ) (2x)

( G  Cm  Am  D )

G        Cm      D
I don't have love to share
  G         Cm     D
And I don't have one who cares.
G        Cm
I don't have anything
Am             D
Since I don't have you.

G  Em  Am  D
You You You Naaahaa
G  Em  Am  D
You You You naaahaa
Composição de Joe Rock / Lennie Martin
Colaboración y revision:
  • Nicolas bortoli
  • Felipe Souza
  • AMANDA CORDEIRO
133 reproducciones
    • ½ Tono
    • A
    • Bb
    • B
    • C
    • Db
    • D
    • Eb
    • E
    • F
    • F#
    • G
    • Ab
  • Adicionar à lista

    0 comentarios

    Ver todos os comentários

    ¿Conseguiste tocar?

    2 Tocaram 0 Ainda não

    Grave um vídeo tocando Since I Don't Have You e nos envie!

    00:00 / 00:00
    outros vídeos desta música
    repetir qualidade Automático
    Outros vídeos desta música
    00:00 / 00:00
    Automático
    OK