Cifra Club

Adios

Gustavo Cerati

Cifrado: Principal (guitarra y guitarra eléctrica)
tono: D
[Intro]  Em  A  D  G  A  G
         Em  A  D  G  A  G

Parte 1 de 2
E|------------------0-------x----------------|
B|--------------------------2----0-----------|
G|--------------0-----------2-------2--------|
D|----------2---------------2------------2---|
A|--------------------------0----------------|
E|--2---0-------------------x----------------|

Parte 2 de 2
E|-2----3-----2--------------3-----0------2--|
B|-3---------------3---------3-----2------2--|
G|-2-------------------------0-----2------0--|
D|-0-------------------------0-----2------0--|
A|-x-------------------------2-----0------2--|
E|-x---------------------2---3-----x------3--|

[Primeira Parte]

Em     A        D         G    A  G
 Suspiraban lo mismo los dos
Em          A             D       G    A  G
 Y hoy son parte de una lluvia lejos
Em         A         D           G    A  G
 No te confundas no sirve el rencor
Em      A          D         G    A  G
 Son espasmos después del adiós

Bm          F#m7          G               D
 Pones canciones tristes para sentirte mejor
A               Bm              G
 Tu esencia es mas visible,del mismo dolor
      Gm
 Vendrá un nuevo amanecer

( Em  A  D  G  A  G )

(Riff)
Parte 1 de 2
E|------------------0-------x----------------|
B|--------------------------2----0-----------|
G|--------------0-----------2-------2--------|
D|----------2---------------2------------2---|
A|--------------------------0----------------|
E|--2---0-------------------x----------------|

Parte 2 de 2
E|-2----3-----2--------------3-----0------2--|
B|-3---------------3---------3-----2------2--|
G|-2-------------------------0-----2------0--|
D|-0-------------------------0-----2------0--|
A|-x-------------------------2-----0------2--|
E|-x---------------------2---3-----x------3--|

[Terceira Parte]

Em           A        D     G    A G
 Tal vez colmaban la necesidad
Em           A           D         G    A G
 Pero hay vacíos que no pueden llenar
Em       A        D      G    A G
 No conocían la profundidad
Em             A        D      G    A G
 Hasta que un día no dio para mas

Bm        F#m7      G                 D
 Quedabas esperando ecos que no volverán
A             Bm              G
 Flotando entre rechazos del mismo dolor
      Gm
 Vendrá un nuevo amanecer

[Solo]  Em  A  D  G  A  G

[Refrão]

Bm          F#/A#         A          E/G#
 Separarse de la especie por algo superior 
G         D/F#        A
 No es soberbia, es amor   
G         D           A   E
 No es soberbia, es amor
 G       Gm
Poder decir adiós es crecer

( Em  A  D  G  A  G )

(Riff)
Parte 1 de 2
E|------------------0-------x----------------|
B|--------------------------2----0-----------|
G|--------------0-----------2-------2--------|
D|----------2---------------2------------2---|
A|--------------------------0----------------|
E|--2---0-------------------x----------------|

Parte 2 de 2
E|-2----3-----2--------------3-----0------2--|
B|-3---------------3---------3-----2------2--|
G|-2-------------------------0-----2------0--|
D|-0-------------------------0-----2------0--|
A|-x-------------------------2-----0------2--|
E|-x---------------------2---3-----x------3--|

[Final]  A  G
Composición de Benito Cerati / Gustavo Cerati
Colaboración y revisión:
12.969 vistas
    • ½ Tono
    • A
    • Bb
    • B
    • C
    • Db
    • D
    • Eb
    • E
    • F
    • F#
    • G
    • Ab
  • Agregar a la lista

    0 comentarios

    Ver todos los comentarios
    00:00 / 00:00
    Outros vídeos desta música
    Repetir Calidad Automático
    Outros vídeos desta música
    00:00 / 00:00
    Automático
    OK