Cifra Club

Adiós

Gustavo Cerati

Cifrado: Principal (guitarra y guitarra eléctrica)
Selo Cifra Club: esta cifra foi revisada para atender aos critérios oficiais da nossa Equipe de Qualidade.
tono: Em
[Intro] Em  A  D  G  A  G
        Em  A  D  G  A  G

[Dedilhado - Intro]

Parte 1 de 2
E|----------0-------------------------------|
B|--------------2-0-------------------------|
G|--------0-----2---2-----------------------|
D|------2-------2-----2---------------------|
A|--------------0---------------------------|
E|-2--0-------------------------------------|

Parte 2 de 2
E|-2-3-2-----3--0--2------------------------|
B|-3-----3---3--2--2------------------------|
G|-2---------0--2--0------------------------|
D|-0------------2--0------------------------|
A|--------------0--2------------------------|
E|---------3-------3------------------------|

Parte 1 de 2
E|----------0-------------------------------|
B|--------------2-0-------------------------|
G|--------0-----2---2-----------------------|
D|------2-------2-----2---------------------|
A|--------------0---------------------------|
E|-2--0-------------------------------------|

Parte 2 de 2
E|-2-3-2-----3--0--2------------------------|
B|-3-----3---3--2--2------------------------|
G|-2---------0--2--0------------------------|
D|-0------------2--0------------------------|
A|--------------0--2------------------------|
E|---------3-------3------------------------|

[Primeira Parte]

Em       A        D         G  A  G
   Suspiraban lo mismo los dos
Em            A             D       G  A  G
   Y hoy son parte de una lluvia lejos
Em           A         D           G  A  G
   No te confundas no sirve el rencor
Em        A          D         G  A  G
   Son espasmos después del adiós

[Refrão 1]

Bm            F#m7          G               D
   Pones canciones tristes para sentirte mejor
A                Bm               G
  Tu esencia es mas visible, del mismo dolor
     Gm               Em
Vendrá un nuevo amanecer

( A  D  G  A  G )

[Dedilhado - Interlúdio]

Parte 1 de 2
E|----------0-------------------------------|
B|--------------2-0-------------------------|
G|--------0-----2---2-----------------------|
D|------2-------2-----2---------------------|
A|--------------0---------------------------|
E|-2--0-------------------------------------|

Parte 2 de 2
E|-2-3-2-----3--0--2------------------------|
B|-3-----3---3--2--2------------------------|
G|-2---------0--2--0------------------------|
D|-0------------2--0------------------------|
A|--------------0--2------------------------|
E|---------3-------3------------------------|

[Segunda Parte]

Em             A        D     G  A  G
   Tal vez colmaban la necesidad
Em             A          D     
   Pero hay vacíos que no 
           G  A  G
Pueden llenar
Em         A        D      G  A  G
   No conocían la profundidad
Em               A     D  
   Hasta que un día no 
          G  A  G
Dio para mas

[Refrão 2]

Bm          F#m7      G                 D
   Quedabas esperando ecos que no volverán
A              Bm              G
  Flotando entre rechazos del mismo dolor
     Gm               Em
Vendrá un nuevo amanecer

[Solo] A  D  G  A  G
       Em  A  D  G  A  G
       Em  A  D  G  A  G

[Terceira Parte]

Bm            Bb°           A             E/G#
   Separarse de la especie por algo superior 
G          D/F#        A
  No es soberbia, es amor   
G          D           A  E
  No es soberbia, es amor
G          Gm              Em
  Poder decir adiós es crecer

[Final] A  D  G  A  G
        A  G  A  G  A  G
        A  G  A  G  A  G 
        A  G  A  G  
        A  G  A  G
Otros videos de esta canción
    259.000 exhibiciones
    • Simplificar cifrado
      • ½ Tono
      • Am
      • Bbm
      • Bm
      • Cm
      • C#m
      • Dm
      • Ebm
      • Em
      • Fm
      • F#m
      • Gm
      • G#m
    • Agregar a la lista

    Afinación de cifrado

    Afinador online

      OK