Cifra Club

It's All Tears

Him

Tab de bajo: Versão 4
The way i learned was standard tuned...But hence Mige now drop tuned means it sounds 
this...Plus it sounds really Grr and gritty which i like. Enjoy this tab and to who it may 
if you can play Killing Loneliness or vampire heart please tab it down...they're my next if i can find tabs.

Intro/Chorus/Outro
This bits pretty fun...its almost like playing the notes ville sings

D|----------------------------------------------------------|
A|----------------------------------------------------------|
E|----2-4-5-4-2-4-4-2-0-2-0---0-0-0-0-0-0-0-----------------|
B|2-2-----------------------4---------------2-3-2-3-2-3-2-0-|

Verse
This is a little bit boring but you can spice it up..i do

D|----------------------------------------------------------------|
A|----------------------------------------------------------------|
E|----------------------------------------------------------------|
B|2-2-2-2-2-2-2-2-2-2-2-2-2-2-2-2-5-5-5-5-5-5-5-5-0-0-0-0-0-0-0-0-| 3x then...

D|----------------------------------------------------------------|
A|----------------------------------------------------------------|
E|----------------------------------------------------------------|
B|2-2-2-2-2-2-2-2-2-2-2-2-2-2-2-2-5-5-5-5-5-5-5-5-4-4-4-4-4-4-4-4-|
00:00 / 00:00
Otros videos de esta canción
Repetir
Otros videos de esta canción
Composición de Ville Valo

0 comentarios

Ver todos los comentarios

¿Lograste tocar?

0 Tocaron 0 Aún no

¡Graba un video tocando It's All Tears y envíanoslo!

00:00 / 00:00
OK