Cifra Club

It's All Tears

Him

Tab de bajo: Versão 2
Before i begin this is version 2 plus more...Before anyone say how rude im not stealing
2 as my own, i was the one that tabbed version 2 but im registered as a member now which
ppl see my name there rather than unregistered plus there is an interlude i forgot to 
onto version 2 and ive been kicking myself ever since so ive copied my old one and now
add more to it

The way i learned was standard tuned...But hence Mige now drop tuned means it sounds
this...Plus it sounds really Grr and gritty which i like. Enjoy this tab and to who it may
if you can play Killing Loneliness or vampire heart please tab it down...they're my next
i can find tabs.

Intro/Chorus/Outro
This bits pretty fun...its almost like playing the notes ville sings

D|----------------------------------------------------------|
A|----------------------------------------------------------|
E|----2-4-5-4-2-4-4-2-0-2-0---0-0-0-0-0-0-0-----------------|
B|2-2-----------------------4---------------2-3-2-3-2-3-2-0-|

Verse
This is a little bit boring but you can spice it up..i do

D|----------------------------------------------------------------|
A|----------------------------------------------------------------|
E|----------------------------------------------------------------|
B|2-2-2-2-2-2-2-2-2-2-2-2-2-2-2-2-5-5-5-5-5-5-5-5-0-0-0-0-0-0-0-0-| 3x then...

D|----------------------------------------------------------------|
A|----------------------------------------------------------------|
E|----------------------------------------------------------------|
B|2-2-2-2-2-2-2-2-2-2-2-2-2-2-2-2-5-5-5-5-5-5-5-5-4-4-4-4-4-4-4-4-|

Interlude (to what i remember the tavastia gig on dvd)
This bits a bit boring but works so well i wouldnt suggest any tweaking as i dont even bother

D|----------------------------------------------------------------|
A|----------------------------------------------------------------|
E|----------------------------------------------------------------|
B|2--2-2-2-2-2-2-2-2-2-2-2-2-0-2-4-4-4-4-4-4-4-4-4-4-4-4-4-4-4-2--|

D|------------------------------------------------------------------|
A|------------------------------------------------------------------|
E|------------------------------------------------------------------|
B|2-2-2-2-2-2-2-2-2-2-2-2-0-2-4-4-4-4-4-4-4-4-5-5-5-5-5-5-5---------|

Repeat these 2 together one more time and even though on there it looks like its out of
its coz it cuts short for a quick drum solo or fill and then back into chorus :)

BONUS TIME:

Im in a good mood now so if you want some templates for some snazzy mige style sounds
the boring verse that needs spicing (some of these are interpretations from gigs ive seen,
are just my experiments coz its a good song for trying new things with) then im nice 
to tell the secrets now too hehe...

D|----------------------------------------------------------------|
A|----------------------------------------------------------------|
E|----------------------------4-2-0-0-0-0-0-0-4-2-----------------|
B|2-2-2-2-2-2-2-2-2-2-2-2-2-2---------------------0-0-0-0-0-0-5-3-| x3

D|----------------------------------------------------------------|
A|----------------------------------------------------------------|
E|----------------------------4-2-0-0-0-0-0-0-4-2-----------------|
B|2-2-2-2-2-2-2-2-2-2-2-2-2-2---------------------4-4-4-4-4-4-2-4-|(straight into 2nd
on chorus so its one piece without a break)

The rest im too tired to tab right now coz im tired and they have odd rythms so it will
to wait but feel free to adapt this one into your own :)
00:00 / 00:00
Otros videos de esta canción
Repetir
Otros videos de esta canción
Composición de Ville Valo
2 vistas

0 comentarios

Ver todos los comentarios

¿Lograste tocar?

0 Tocaron 0 Aún no

¡Graba un video tocando It's All Tears y envíanoslo!

00:00 / 00:00
OK