Cifra Club

Get Stoned

Hinder

Tab de bajo: Versão 2
Intro
G---------------------------------|
D---------------------------------|
A---------1-1-1-1-----------------|
D-5-5-5-5---------3-3-3-3-1-1-1-1-|

Verse
G-----------------------------|
D------------8----------------|
A--------------8--8-8-8-8-8---|
D-5--5-5/8-8------------------|

Pre Chorus
G--------------------------3--1-3-----------------------------|
D------3-1-----5-3-----3----------3-1-----3-1-----5-3---------|
A-------------------------------------------------------------|
D--1-1-----3-3-----2-2---2------------1-1-----3-3-----0-00000-|


Chorus
G---------------------------------|
D---------------------------------|
A-----------------3-3-3-3-3-3-3---| x2
D-5-5-5-5-3-3-3-3---------------0-|

Post Chorus
G---------------------------3--1-3-----|
D-----------------------3----------3-1-|
A--------------------------------------|
D-1-1-1-1---3-3-3-3-5-5---5------------|

Intro x1
Verse x3
Pre Chorus x1
Chorus x3
Post Chorus

Bridge
G-----------------------------------------------------------------|
D-----------------------------------------------------------------|
A---------1-1-1-1-------------------------1-1-1-1-----------------|
D-5-5-5-5---------3-3-3-3-1-1-1-1-5-5-5-5---------3-3-3-3-0-0-0-0-|

short pause, then...

G----------|
D----------|
A----------|
D-4/1--3-5-|

Chorus x2
Post Chorus x2

Ending
G-----------------------------------|
D-----------------------------------|
A-3-3-3-3---------------------------| x3
D---------1-1-1-1-5-5-5-5-3-3-3-3---|

G----------------|
D----------------|
A-3-3-3-3--------|
D----------1--1--|
Composición de Austin Winkler / Brian Howes / Cody Hanson / Joe Garvey / Joey Moie / Mark King / Mike Rodden

0 comentarios

Ver todos los comentarios
00:00 / 00:00
Outros vídeos desta música
Repetir Calidad Automático
Outros vídeos desta música
00:00 / 00:00
Automático
OK