Cifra Club

Hino da Independência do Brasil

Hinos

Cifrado: Principal (guitarra y guitarra eléctrica)
Selo Cifra Club: esta cifra foi revisada para atender aos critérios oficiais da nossa Equipe de Qualidade.
tono: A
E|----------------------------------------------------------------------------------------------------------------------|
B|--------------------3-2-2-3-2-------------------------------------------3--2-0-2-3-5-5--------------------------------|
G|--2--0-------------2---------4-2--4-2-0---2-4-2-----4-2-0----2-4-2------2----------------7-6-4------------------------|
D|------0-0-0-0-2-5-0---------------------2------4-0--------2-------4-0------------------------7-6-4-7-6-4--------------|
A|--------------------------------------------------------------------------------------------------7--------7-5-4------|
E|----------------------------------------------------------------------------------------------------------------7-5---|

E|-------------------------------------------------------------------------------------------------------------------------------------------|
B|-----0--------------0-----------------------------2-3-3-0------------3-3-5-3-2-0-----3-2-0--------------3-3-5-3-2-0-----3-20---------------|
G|--2-2--2---2-0---2-2-2-2----2-0----------0-2-2-4----------2-0-------------------2---------2-0---------------------2--------2-0-------------|
D|--------2-----4-------------2-----4---4-44------------------------4-20-----------------------------4-2-0---------------------------4-2-0---|
A|-------------------------------------------------------------------------------------------------------------------------------------------|
E|-------------------------------------------------------------------------------------------------------------------------------------------|

Otros videos de esta canción
    34.506 exhibiciones
    • Simplificar cifrado
      • ½ Tono
      • A
      • Bb
      • B
      • C
      • Db
      • D
      • Eb
      • E
      • F
      • F#
      • G
      • Ab
    • Agregar a la lista

    Afinación de cifrado

    Afinador online

      OK