Cifra Club

Aprenda

If I Were You

Hoobastank

Tablatura: Versão 3 (guitarra)
tono: C
For all ye Pinoys out there 'roun 'd world,  ya'll rock!!!

To all the Bosconians of Don Bosco in the Philippines especially in Makati,
this is for you all.

For our section, 3rd Year - Section 2  Blessed Phillip Rinaldi  Computer Technology 
this is also for you all.

To my band Syntax, good luck for our presentation in the Battle of the Bands 2006.

Lead/Rhythm Guitar: Kristian Mikkel C. Sagun     3-2 ComTech Batch '06-'08
Rhythm/Lead Guitar: Mark Lucas M. Lim     3-2 ComTech Batch '06-'08
Bass Guitar: Evan Lee Fletcher "Ongster" O. Ong    3-2 ComTech Batch '06-'08
Drums: Jeffrey Lim     3-2 ComTech Batch '06-'08

Tabbed by: Kristian Mikkel C. Sagun from the Philippines
*(Friendster, Yahoo! Messenger, Hi5)

This is my first ever song that I tabbed so if you have any comments, suggestions, 
please, don't hesitate to e-mail me or add me at Friendster, Yahoo! Messenger or Hi5.

Thank You, God, for the talent you gave me to express myself.

I don't have an Electric Guitar at home so I don't know any effects except distortion.

This is not perfect but I worked hard for this.

Tuning: Standard (EADGBe)

Intro: Xylophone/Effects  (8 times but after the first four, pause first before 
to the second four)

e|-----9-------19-17-16--------12--------------------------|
B|---------------------------------------------------------|
G|---------------------------------------------------------|
D|---------------------------------------------------------|
A|---------------------------------------------------------|
E|---------------------------------------------------------|

Verse 1 (All the strumming is up to you coz I can't figure it out.  Sorry!!)
e|-----x-------x--------------------------------------|\
B|-----x-------5--------------------------------------|\ \
G|-----6-------6----------------------------------|  3|\
D|-----7-------6--------------------------------------|\times
A|-----7-------4--------------------------------------|\ /
E|-----5-------x--------------------------------------|\

then

e|-----3-------x--------------------------------------|
B|-----3-------x--------------------------------------|
G|-----5-------4--------------------------------------|
D|-----5-------5--------------------------------------|
A|-----3-------5--------------------------------------|
E|-----x-------3--------------------------------------|

Verse 2
e|-----x-------x--------------------------------------|\
B|-----x-------5--------------------------------------|\ \
G|-----6-------6----------------------------------|  3|\
D|-----7-------6--------------------------------------|\times
A|-----7-------4--------------------------------------|\ /
E|-----5-------x--------------------------------------|\

then

e|-----3-------x------------------------------------------|\
B|-----3-------x------------------------------------------|\ \
G|-----5-------4--------------------------------------|  2|\
D|-----5-------5------------------------------------------|\times
A|-----3-------5------------------------------------------|\ /
E|-----x-------3------------------------------------------|\

Chorus 1
e|-----x-------x-------x------x-------x------------------------|\
B|-----7-------x-------x------x-------7------------------------|\ \
G|-----7-------7-------5------4-------7--------------------|  2|\
D|-----6-------7-------5------5-------6------------------------|\times
A|-----5-------6-------3------5-------5------------------------|\ /
E|-----x-------5-------x------3-------x------------------------|\


Interlude: (Intro but only 3 times)


Verse 3
e|-----x-------x--------------------------------------|\
B|-----x-------5--------------------------------------|\ \
G|-----6-------6----------------------------------|  3|\
D|-----7-------6--------------------------------------|\times
A|-----7-------4--------------------------------------|\ /
E|-----5-------x--------------------------------------|\

then

e|-----3-------x--------------------------------------|
B|-----3-------x--------------------------------------|
G|-----5-------4--------------------------------------|
D|-----5-------5--------------------------------------|
A|-----3-------5--------------------------------------|
E|-----x-------3--------------------------------------|

Verse 4
e|-----x-------x--------------------------------------|\
B|-----x-------5--------------------------------------|\ \
G|-----6-------6----------------------------------|  3|\
D|-----7-------6--------------------------------------|\times
A|-----7-------4--------------------------------------|\ /
E|-----5-------x--------------------------------------|\

then

e|-----3-------x------------------------------------------|\
B|-----3-------x------------------------------------------|\ \
G|-----5-------4--------------------------------------|  2|\
D|-----5-------5------------------------------------------|\times
A|-----3-------5------------------------------------------|\ /
E|-----x-------3------------------------------------------|\

Chorus
e|-----x-------x-------x------x-------x--------------------|
B|-----7-------x-------x------x-------7--------------------|
G|-----7-------7-------5------4-------7--------------------|
D|-----6-------7-------5------5-------6--------------------|
A|-----5-------6-------3------5-------5--------------------|
E|-----x-------5-------x------3-------x--------------------|

e|-----x-------x-------x--x--x--x-------x--------------------|
B|-----7-------x-------x--x--x--x-------7--------------------|
G|-----7-------7-------5--4--5--4-------7--------------------|
D|-----6-------7-------5--5--5--5-------6--------------------|
A|-----5-------6-------3--5--3--5-------5--------------------|
E|-----x-------5-------x--3--x--3-------x--------------------|


Ad Lib + Solo

Sorry, I can't figure it out!!!


Verse 5
e|-----x-------x--------------------------------------|\
B|-----x-------5--------------------------------------|\ \
G|-----6-------6----------------------------------|  3|\
D|-----7-------6--------------------------------------|\times
A|-----7-------4--------------------------------------|\ /
E|-----5-------x--------------------------------------|\

then

e|-----3-------x------------------------------------------|\
B|-----3-------x------------------------------------------|\ \
G|-----5-------4--------------------------------------|  2|\
D|-----5-------5------------------------------------------|\times
A|-----3-------5------------------------------------------|\ /
E|-----x-------3------------------------------------------|\

Chorus 3
e|-----x-------x-------x------x-------x--------------------|
B|-----7-------x-------x------x-------7--------------------|
G|-----7-------7-------5------4-------7--------------------|
D|-----6-------7-------5------5-------6--------------------|
A|-----5-------6-------3------5-------5--------------------|
E|-----x-------5-------x------3-------x--------------------|

e|-----x-------x-------x--x--x--x------x--x---x--------------------|
B|-----7-------x-------x--x--x--x------x--x---x--------------------|
G|-----7-------7-------5--4--5--4------8--10--9--------------------|
D|-----6-------7-------5--5--5--5------8--10--10-------------------|
A|-----5-------6-------3--5--3--5------6--8---10-------------------|
E|-----x-------5-------x--3--x--3------x--x---8--------------------|

e|-----x-------x-------x---------x-------x-------x-------------|
B|-----x-------x-------x---------x-------x-------x-------------|
G|-----8-------10------9---------8-------10------9-------------|
D|-----8-------10------10--------8-------10------10------------|
A|-----6-------8-------10--------6-------8-------10------------|
E|-----x-------x-------8---------x-------x-------8-------------|


END


Thank You!!!

Rock On and Peace Out!!!!


~~~~~~~~~~~~~~~~~~~~~~~~~~~~~~~~~~~~~~~~~~~~~~~~~~~~~~~~~~~~~~~~~~~~~~~~~~~~
Composição de Douglas Robb
4 reproducciones
    • ½ Tono
    • A
    • Bb
    • B
    • C
    • Db
    • D
    • Eb
    • E
    • F
    • F#
    • G
    • Ab
  • Adicionar à lista

    0 comentarios

    Ver todos os comentários

    ¿Conseguiste tocar?

    0 Tocaram 0 Ainda não

    Grave um vídeo tocando If I Were You e nos envie!

    00:00 / 00:00
    outros vídeos desta música
    repetir qualidade Automático
    Outros vídeos desta música
    00:00 / 00:00
    Automático
    OK