Notificações Amigos pendentes

      Iron Maiden

      The Trooper

      23.141 reproducciones
      Tono: C
      Intro:
      
      (Guitarra 1)
      
      E|---------------------------------------
      B|---------------------------------------
      G|--------------------------------------- (4x)
      D|---------------------------------5-----
      A|-7-7-7p5---5-5-5p3---3-3-3p2---5---5---
      E|---------7---------5---------3---------
      
      
      E|----------------7----------------------
      B|-8--7h8p7h8p7h8---8--7h8p7h8p7h8-8-----
      G|-----------------------------------9-9~
      D|---------------------------------------
      A|---------------------------------------
      E|---------------------------------------
      
      
      E|---------------------------------------
      B|---8-----------------------------------
      G|-7---7--9~-----------------------------
      D|---------------------------------------
      A|---------------------------------------
      E|---------------------------------------
      
      
      (Guitarra 2)
      
      E|---------------------------------------
      B|---------------------------------------
      G|-----------------------------------4---  (2x)
      D|-5-5-5p4---4-4-4p2---2-2-2p0-----4---4-
      A|---------5---------3---------2---------
      E|---------------------------------------
      
      
      E|---------------------------------------
      B|---------------------------------------
      G|---------------------------------------
      D|-5-5-5p4---4-4-4p2---2-2-2p0---4-5-4---
      A|---------5---------3---------2---------
      E|---------------------------------------
      
      
      E|---------------------------------------
      B|---------------------------------------
      G|---------------7-----------------------
      D|-9-7h9p7h9p7h9---9-7h9p7h9p7h9-9-------
      A|---------------------------------10----
      E|---------------------------------------
      
      
      E|---------------------------------------
      B|---------------------------------------
      G|---------------------------------------
      D|---------------------------------------
      A|-10-9-10-9-10--------------------------
      E|---------------------------------------
      
      
      (Guitarra 3)
      
      
              E5
      E|---------------------------------------
      B|---------------------------------------
      G|---------------------------------------
      D|---5----9--9-9-9--9-9-9--9-9-9--9-9-9--
      A|-5---5--7--7-7-7--7-7-7--7-7-7--7-7-7--
      E|--------0------------------------------
      
      pm         ...    ...    ...    ...
      
      E|---------------------------------------
      B|---------------------------------------
      G|---------------------------------------
      D|-9-9-9---9-9---------------------------
      A|-7-7-7---7-7---------------------------
      E|---------------------------------------
      
      pm..     ...
      
              C5
      E|---------------------------------------
      B|---------------------------------------
      G|---------------------------------------
      D|---5----5--5-5-5--5-5-5--5-5-5--5-5-5--
      A|-5---5--3--3-3-3--3-3-3--3-3-3--3-3-3--
      E|---------------------------------------
      
      pm         ...    ...    ...    ...
      
      E|---------------------------------------
      B|---------------------------------------
      G|---------------------------------------
      D|-5-5-5--5-5----------------------------
      A|-3-3-3--3-3----------------------------
      E|---------------------------------------
      
      pm...   ...
      
      (variação)
      
       E5
      E|---------------------------------------
      B|---------------------------------------
      G|---------------------------------------
      D|-9-9-9---9-9-9--9-9-9------------------
      A|-7-7-7---7-7-7--7-7-7------------------
      E|---------------------------------------
      
      pm..     ...    ...
      ( E5  C5  E5 )
      
      Primeira Parte:
      
              E5          E5         C5
      E|---------------------------------------
      B|---------------------------------------
      G|---------------------------------------
      D|---5----9------5----9-----5----5-------
      A|-5---5--7----5---5--7---5---5--3-------
      E|--------0-----------0------------------
      
      
              E5
      E|---------------------------------------
      B|---------------------------------------
      G|---------------------------------------
      D|---5----9------------------------------
      A|-5---5--7------------------------------
      E|--------0------------------------------
      
      
      E5
         You'll take my life but I'll take yours too
      
      You'll fire your musket but I'll run you through
      C5
         So when you're waiting for the next attack
      E5
         You'd better stand there's no turning back.
      
      E5
         He bugle sounds and the charge begins
      But on this battlefield no one wins
      C5
         The smell of acrid smoke and horses breath
      E5
         As I plunge on into certain death.
      
      (Repete Guitarra 3 - Intro)
      
      Refrão:
      D5                                         E5
         Oooh oooh oooh oooh oooh oooh oooh oooh oooooh (2x)
      Refrão:
      
       D5
      E|---------------------------------------
      B|---------------------------------------
      G|---------------------------------------
      D|-7---X-7--X-7--X-7---------------------
      A|-5---X-5--X-5--X-5---------------------
      E|---------------------------------------
      
      
       E5
      E|---------------------------------------
      B|---------------------------------------
      G|---------------------------------------
      D|-9--9-9-9--9-9-9--9-9-9--9-9-9--9-9-9--
      A|-7--7-7-7--7-7-7--7-7-7--7-7-7--7-7-7--
      E|---------------------------------------
      
      pm  ...    ...    ...    ...    ...
      
       E5
      E|---------------------------------------
      B|---------------------------------------
      G|---------------------------------------
      D|-9-9-9---9-9-9-------------------------
      A|-7-7-7---7-7-7-------------------------
      E|---------------------------------------
      
      pm..     ...
      
      E|---------------------------------------
      B|---------------------------------------
      G|---------------------------------------
      D|-9-9-9-----5---------------------------
      A|-7-7-7---5---5-------------------------
      E|---------------------------------------
      
      pm..
      
      E|---------------------------------------
      B|---------------------------------------
      G|-9-9-9---4-----------------------------
      D|-7-7-7-4---4---------------------------
      A|---------------------------------------
      E|---------------------------------------
      
      pm..
      
      (Solo Intro)
      
      Primeira Parte com variação na letra:
      E5
         The horse he sweats with fear we break to run
      The mighty roar of the Russian guns
      C5
         And as we race towards the human wall
      E5
         The screams of pain as my comrades fall
      
      E5
         We hurdle bodies that lay on the ground
      And the Russians fire another round
      C5
         We get so near yet so far away
      E5
         We won't live to fight another day.
      
      Refrão:
      D5                                         E5
         Oooh oooh oooh oooh oooh oooh oooh oooh oooooh (2x)
      
      Solo 1 - 4x: E5  D5  B5  C5
      E|---------------------------------------------------
      B|-15b17----15b17----15b17r15--12---15~--------------
      G|---------------------------------------------------
      D|---------------------------------------------------
      A|---------------------------------------------------
      E|---------------------------------------------------
      
      
      E|----15b17~-15p12-----------------------------------
      B|-12------------------------------------------------
      G|-----------------15p14p12--------------------------
      D|---------------------------14-14p12-----------------
      A|-----------------------------------14--------------
      E|---------------------------------------------------
      
      
      E|---------------------------------------------------
      B|---------12-15---------12-15--------12-15----------
      G|-14b16----------14b16---------14b16--------14b16---
      D|---------------------------------------------------
      A|---------------------------------------------------
      E|---------------------------------------------------
      
      
      E|---------------------------------------------------
      B|-12-15--------12-15-------12-15-------12h15--------
      G|--------14b16-------14b16-------14b16-------14b16--
      D|---------------------------------------------------
      A|---------------------------------------------------
      E|---------------------------------------------------
      
      
      E|---------------------------------------------------
      B|-12h15--------12h15-------12h15-------12h15--------
      G|--------14b16--------14b16-------14b16-------------
      D|---------------------------------------------------
      A|---------------------------------------------------
      E|---------------------------------------------------
      
      
      E|-----------------------15-19p15h17p15--------------
      B|-------------------/17----------------17-----------
      G|-15p14p12--14--12----------------------------------
      D|---------------------------------------------------
      A|---------------------------------------------------
      E|---------------------------------------------------
      
      
      E|-------------------------15-19p15h17p15------------
      B|---------------------/17----------------17---------
      G|-15p14p12----14--12--------------------------------
      D|----------14---------------------------------------
      A|---------------------------------------------------
      E|---------------------------------------------------
      
      
      E|-15--19p15-h17p15-----15--19p15-h17p15----15-------
      B|-------------------17------------------17----------
      G|---------------------------------------------------
      D|---------------------------------------------------
      A|---------------------------------------------------
      E|---------------------------------------------------
      
      
      E|-19p15-h17p15--------------------------------------
      B|---------------------------------------------------
      G|---------------------------------------------------
      D|---------------------------------------------------
      A|---------------------------------------------------
      E|---------------------------------------------------
      
      
      E|----15--19p15-h17p15----15--19p15-h17p15----15-----
      B|-17------------------17------------------17--------
      G|---------------------------------------------------
      D|---------------------------------------------------
      A|---------------------------------------------------
      E|---------------------------------------------------
      
      
      E|-19p15-h17p15--------------------------------------
      B|---------------------------------------------------
      G|---------------------------------------------------
      D|---------------------------------------------------
      A|---------------------------------------------------
      E|---------------------------------------------------
      
      
      E|-----20b22-20b22--20b22--20b22r--20b22r------------
      B|-17------------------------------------------------
      G|---------------------------------------------------
      D|---------------------------------------------------
      A|---------------------------------------------------
      E|---------------------------------------------------
      
      
      E|-20b22r--20b22--19--20--17--19----17---------------
      B|-------------------------------20----19-20--17~----
      G|---------------------------------------------------
      D|---------------------------------------------------
      A|---------------------------------------------------
      E|---------------------------------------------------
      
      
      E|-14b15--14b15r--14b15r--14b15r--14b15--------------
      B|---------------------------------------------------
      G|---------------------------------------------------
      D|---------------------------------------------------
      A|---------------------------------------------------
      E|---------------------------------------------------
      
      
      E|-12--14-----12-------------------------------------
      B|---------15----13--15--12h13-----------------------
      G|------------------------------14-~-----------------
      D|---------------------------------------------------
      A|---------------------------------------------------
      E|---------------------------------------------------
      
      
      E|----------12-------12------------------------------
      B|-------12----15b17----15--12-----------------------
      G|-14b16-----------------------14b16r14p12-16p14-----
      D|---------------------------------------------------
      A|-----------------------------------------------14~-
      E|---------------------------------------------------
      
      
      Solo 2 - 4x: A5  G5  E5  F5  G5
      
                                              H.A....
      
      E|------5h8p5h8p5h8p5h8p5----------------------------
      B|-5h8--------------------8p5h8p5h8p5h8p5------------
      G|----------------------------------------7b9-9r8----
      D|---------------------------------------------------
      A|---------------------------------------------------
      E|---------------------------------------------------
      
      
       H.A.......................
      
      E|---------------------------------------------------
      B|-----------------------------5h7p5h7p5h7p5---------
      G|-7--6--5---6--5------------------------------------
      D|---------7------7----------------------------------
      A|------------------6--5-----------------------------
      E|-----------------------8--5~-----------------------
      
      
      E|-5h7p5h7p5h7-------------5h7p5h7p5--7h8p7h8p7------
      B|-------------5h7p5h7p6h8---------------------------
      G|---------------------------------------------------
      D|---------------------------------------------------
      A|---------------------------------------------------
      E|---------------------------------------------------
      
      
      E|----7---10b12---10b-12---10b-12-12r10--8--10~-8----
      B|-10------------------------------------------------
      G|---------------------------------------------------
      D|---------------------------------------------------
      A|---------------------------------------------------
      E|---------------------------------------------------
      
      
      E|----12h15p12----12h15p12h15p12---------------------
      B|-15----------15----------------15h17p15------------
      G|-----------------------------------------17--------
      D|---------------------------------------------------
      A|---------------------------------------------------
      E|---------------------------------------------------
      
      
      E|---------------------------------------------------
      B|---------------------15h17p15----------------------
      G|-16h17p16p14--14h17-----------17p14----17b19-------
      D|---------------------------------------------------
      A|---------------------------------------------------
      E|---------------------------------------------------
      
       harm..
      
      E|---------------------------------------------------
      B|-------13b15~--------------------------------------
      G|-5----------------------------------~--------------
      D|---------------------------------------------------
      A|---------------------------------------------------
      E|---------------------------------------------------
      
      
      E|---------------------------------------20b22-22r20-
      B|-----------------------20b22--22r20-17-------------
      G|-17--19b21--21r19--17------------------------------
      D|---------------------------------------------------
      A|---------------------------------------------------
      E|---------------------------------------------------
      
      
      E|-----------20b22--20--19--17-----------------------
      B|-20b22--17-------------------20b22-----------------
      G|------------------------------------r20------------
      D|---------------------------------------------------
      A|---------------------------------------------------
      E|---------------------------------------------------
      
      
      E|---------------------------------------------------
      B|---------------------------------------------------
      G|-17h19--17h19p17-----------------------------------
      D|-----------------19--------------------------------
      A|---------------------------------------------------
      E|---------------------------------------------------
      
      
      Solo Introdução: E5  C5  D5  E5
      
      Primeira parte com variação na letra:
      E5
         We get so close near enough to fight
      When a Russian gets me in his sights
      C5
         He pulls the trigger and I feel the blow
      E5
         A burst of rounds take my horse below.
      
      E5
         And as I lay there gazing at the sky
      My body's numb and my throat is dry
      C5
         And as I lay forgotten and alone
      E5
         Without a tear I draw my parting groan
      
      (Refrão)
      D5                                         E5
         Oooh oooh oooh oooh oooh oooh oooh oooh oooooh (2x)
      
      (Riff introdução)
        Composición: Steve HarrisColaboración y revision:
        • tarsiuslima
        • Victor Ferraz
        • Droga

        Comentarios 134

        140 .
        • Rafael Rafael: Em 26/01/2016 17:13

          eu ouvia o solo achava q era do satanáis, mas até q é bem facil

        • Oliver Oliver: Em 20/12/2015 00:31

          ta meio errada a introdução -`_´-

          • dhelyell dhelyell: Em 19/09/2016 22:39

            ta nada ta certa ver a afinação

        • Oliver Oliver: Em 20/12/2015 00:31

          ta meio errada a introdução -`_´-

        • Ricardinho Ricardinho: Em 03/02/2015 11:45

          zerei a vida huehuehuehu

        • Guilherme Guilherme: Em 04/03/2014 20:05

          muito foda essa musica, minha preferida do maiden, boa video aula tbm!!

        • lukewilkshire.lukwill lukewilkshire.lukwill: Em 03/02/2014 11:14

          muuito maassaaa

        • Joao victor Joao victor : Em 05/01/2014 21:28

          o solo é facil e so treinar so o segundo que é complicadinho mais ja peguei o tempo deles

        • Joao victor Joao victor : Em 03/01/2014 16:44

          solo facil é so treinar galera

        • John John: Em 26/11/2013 18:49

          Como é que faz isso 15p14p12 ?

          • lukewilkshire.lukwill lukewilkshire.lukwill: Em 26/03/2014 10:50

            ué coloca os três dedos nas casas 15, 14 e 12, toca e desaperta um dedo, e depois outro

          • dhelyell dhelyell: Em 19/09/2016 22:43

            Pull Off vc só toca uma vez na corda e com o dedo q ta apertando puxa ela pra baixo se deixar o som morrer

        140 cancelar
        0:00 / 0:00
        1 versão de contrabajo reproducciones contribuición y correción
        1 versão de batería reproducciones contribuición y correción
        1 versão de partiturasformatodownloadscontribuición
        play/pausefechar subir/bajar velocidad
        6ª cuerda E5ª cuerda A4ª cuerda D3ª cuerda G2ª cuerda B1ª cuerda E
          acordes
          publicidad
          cerrar
          ok