Cifra Club

Let It Go

James Bay

Cifrado: Principal (guitarra y guitarra eléctrica)
tono: B (con acordes en la forma de Db) Afinación: D G C F A D
[Tab - Solo Intro] 
                                 
E|------10-10---7~---7-9-10-10\-------------------------------|
B|--7h8-------7-----------------7-12~-10~---------------------|
G|------------------------------------------------------------|
D|------------------------------------------------------------|
A|------------------------------------------------------------|
E|------------------------------------------------------------|

[Tab - Intro e Verso]
                                 
E|------------------------------------------------------------|
B|-----8-----8-----8----/13------13-----13-----13-----13------|
G|--------0-----0-----0-------0------0------0------0------0---|
D|------------------------------------------------------------|
A|-----6----------------/11-----------------------------------|
E|------------------------------------------------------------|
      
E|------------------------6------6------6---------------------|
B|-----8-----8-----8---------------------------9-------8------|
G|--------0-----0-----0-------0------0------0------0------0---|
D|------------------------------------------------------------|
A|------------------------------------------------------------|
E|-----8------------------6-----------------------------------|

E|------------------------------------------------------------|
B|-----8-----8-----8----/13------13-----13-----13-----13------|
G|--------0-----0-----0-------0------0------0------0------0---|
D|------------------------------------------------------------|
A|-----6----------------/11-----------------------------------|
E|------------------------------------------------------------|

E|------------------------------------------------------------|
B|-----8-----8-----8------6-------6------6------6------6------|
G|--------0-----0-----0-------0------0------0------0------0---|
D|------------------------------------------------------------|
A|------------------------------------------------------------|
E|-----8------------------6-----------------------------------|

C#        F#               A#m        G#
From walkin' home, and talking loads,
C#          F#                      A#m      G#
To seeing shows, in evening clothes, with you.
C#     F#                      A#m      G#
From nervous touch, and getting drunk,
C#       F#                 A#m          G#
To stayin' up, and wakin' up, with you.

[Pré-Refrão]

[Tab - Dedilhado]

E|------------------------------------------------------------|
B|-----8-----8-----8------8-------8------8------8------8------|
G|--------8-----8-----8-------8------8------8------8------8---|
D|----10------------------8-----------------------------------|
A|------------------------------------------------------------|
E|------------------------------------------------------------|

E|------------------------------------------------------------|
B|-----8-----8-----8------8-------8------8------8------8------|
G|--------8-----8-----8-------8------8------8------8------8---|
D|-----7------------------6-----------------------------------|
A|------------------------------------------------------------|
E|------------------------------------------------------------|

E|------------------------------------------------------------|
B|-----8-----8-----8------8-------8------8------8------8------|
G|--------8-----8-----8-------8------8------8------8------8---|
D|----10------------------8-----------------------------------|
A|------------------------------------------------------------|
E|------------------------------------------------------------|

E|------------------------------------------------------------|
B|-----8-----8-----8------8~----------------------------------|
G|--------8-----8-----8---------------------------------------|
D|-----7------------------------------------------------------|
A|------------------------------------------------------------|
E|------------------------------------------------------------|


And now we're slippin' at the edge, 

holding something we don't need,

All this delusion in our heads, 

is gonna bring us to our knees

[Refrão]

[Tab - Dedilhado]

E|------------------------------------------------------------|
B|----13----13-----13----\8------8------8------8------8-------|
G|--------0-----0-----0------0------0------0------0------0----|
D|------------------------------------------------------------|
A|----11-----------------\6-----------------------------------|
E|------------------------------------------------------------|

E|------------------------------------------------------------|
B|-----4-----4------4----\3------3------3------3------3-------|
G|--------0-----0-----0------0------0------0------0------0----|
D|------------------------------------------------------------|
A|-----3-----------------\1-----------------------------------|
E|------------------------------------------------------------|

E|------------------------------------------------------------|
B|-----9-----9-----9-----\8------8------8------8------8-------|
G|--------0-----0-----0------0------0------0------0------0----|
D|------------------------------------------------------------|
A|-----8-----------------\6-----------------------------------|
E|------------------------------------------------------------|

E|------------------------------------------------------------|
B|-----3-----3-----3------3------3------3---------------------|
G|--------0-----0-----0------0------0-------------------------|
D|------------------------------------------------------------|
A|-----1--------------------------------1---------------------|
E|------------------------------------------------------------|

F#          C#
So come on, let it go
A#m         G#
Just let it be
F#            C#
Why don't you be you
G#
And I'll be me
F#                  C#
And everything that's broke
A#m             G#
Leave it to the breeze
F#              C#
Why don't you be you
G#
And I'll be me

And I'll be me

[Tab - Dedilhado]

E|------------------------------------------------------------|
B|-----8-----8-----8----/13------13-----13-----13-----13------|
G|--------0-----0-----0-------0------0------0------0------0---|
D|------------------------------------------------------------|
A|-----6----------------/11-----------------------------------|
E|------------------------------------------------------------|
      
E|------------------------6------6------6---------------------|
B|-----8-----8-----8---------------------------9-------8------|
G|--------0-----0-----0-------0------0------0------0------0---|
D|------------------------------------------------------------|
A|------------------------------------------------------------|
E|-----8------------------6-----------------------------------|

E|------------------------------------------------------------|
B|-----8-----8-----8----/13------13-----13-----13-----13------|
G|--------0-----0-----0-------0------0------0------0------0---|
D|------------------------------------------------------------|
A|-----6----------------/11-----------------------------------|
E|------------------------------------------------------------|

E|------------------------------------------------------------|
B|-----8-----8-----8------6-------6------6------6------6------|
G|--------0-----0-----0-------0------0------0------0------0---|
D|------------------------------------------------------------|
A|------------------------------------------------------------|
E|-----8------------------6-----------------------------------|
 

C#        F#               A#m        G#
From throwing clothes across the floor,
C#        F#               A#m        G#
To teeth and clothes and slamming door on you
C#        F#          A#m      G#
If this is all we're living for
C#        F#               A#m        G#
Why are we doing it, doing it, doing it anymore? 

[Pré-Refrão]

[Tab - Dedilhado]

E|------------------------------------------------------------|
B|-----8-----8-----8------8-------8------8------8------8------|
G|--------8-----8-----8-------8------8------8------8------8---|
D|----10------------------8-----------------------------------|
A|------------------------------------------------------------|
E|------------------------------------------------------------|

E|------------------------------------------------------------|
B|-----8-----8-----8------8-------8------8------8------8------|
G|--------8-----8-----8-------8------8------8------8------8---|
D|-----7------------------6-----------------------------------|
A|------------------------------------------------------------|
E|------------------------------------------------------------|

E|------------------------------------------------------------|
B|-----8-----8-----8------8-------8------8------8------8------|
G|--------8-----8-----8-------8------8------8------8------8---|
D|----10------------------8-----------------------------------|
A|------------------------------------------------------------|
E|------------------------------------------------------------|

E|------------------------------------------------------------|
B|-----8-----8-----8------8~----------------------------------|
G|--------8-----8-----8---------------------------------------|
D|-----7------------------------------------------------------|
A|------------------------------------------------------------|
E|------------------------------------------------------------|

I used to recognize myself

It's funny how reflections change

When we're becoming something else,

I think it's time to walk away

[Refrão]

[Tab - Dedilhado]

E|------------------------------------------------------------|
B|----13----13-----13----\8------8------8------8------8-------|
G|--------0-----0-----0------0------0------0------0------0----|
D|------------------------------------------------------------|
A|----11-----------------\6-----------------------------------|
E|------------------------------------------------------------|

E|------------------------------------------------------------|
B|-----4-----4------4----\3------3------3------3------3-------|
G|--------0-----0-----0------0------0------0------0------0----|
D|------------------------------------------------------------|
A|-----3-----------------\1-----------------------------------|
E|------------------------------------------------------------|

E|------------------------------------------------------------|
B|-----9-----9-----9-----\8------8------8------8------8-------|
G|--------0-----0-----0------0------0------0------0------0----|
D|------------------------------------------------------------|
A|-----8-----------------\6-----------------------------------|
E|------------------------------------------------------------|

E|------------------------------------------------------------|
B|-----3-----3-----3------3------3------3---------------------|
G|--------0-----0-----0------0------0-------------------------|
D|------------------------------------------------------------|
A|-----1--------------------------------1---------------------|
E|------------------------------------------------------------|

F#          C#
So come on, let it go
A#m         G#
Just let it be
F#            C#
Why don't you be you
G#
And I'll be me
F#                  C#
And everything that's broke
A#m             G#
Leave it to the breeze
F#              C#
Why don't you be you
G#
And I'll be me
And I'll be me

[Ponte]

[Tab - Dedilhado]

E|------------------------------------------------------------|
B|-----9------9------9------9------9------9------9------9-----|
G|--------0------0------0------0------0------0------0------0--|
D|------------------------------------------------------------|
A|-----8------------------8-----------------------------------|
E|------------------------------------------------------------|

E|------------------------------------------------------------|
B|-----8------8------8------8------8------8------8------8-----|
G|--------0------0------0------0------0------0------0------0--|
D|------------------------------------------------------------|
A|-----6------------------6-----------------------------------|
E|------------------------------------------------------------|

E|------------------------------------------------------------|
B|----15-----15-----15-----15-----15-----15-----15-----15-----|
G|--------0------0------0------0------0------0------0------0--|
D|------------------------------------------------------------|
A|----13------------------13----------------------------------|
E|------------------------------------------------------------|

E|------------------------------------------------------------|
B|----16-----16-----16-----16-----16-----16-----16-----16-----|
G|--------0------0------0------0------0------0------0------0--|
D|------------------------------------------------------------|
A|----15------------------15----------------------------------|
E|------------------------------------------------------------|

D#m                                 A#m7
Tryin' to fit your hand inside of mine
A#m7
When we know it just don't belong
G#
There's no force on earth
                   F#
Could make me feel right, no

D#m                                 A#m7
Tryin' to push this problem up the hill
A#m7
When it's just too heavy to hold
G#                              F#
Think now's the time to let it slide

[Refrão]

[Tab - Dedilhado]

E|------------------------------------------------------------|
B|----13----13-----13----\8------8------8------8------8-------|
G|--------0-----0-----0------0------0------0------0------0----|
D|------------------------------------------------------------|
A|----11-----------------\6-----------------------------------|
E|------------------------------------------------------------|

E|------------------------------------------------------------|
B|-----4-----4------4----\3------3------3------3------3-------|
G|--------0-----0-----0------0------0------0------0------0----|
D|------------------------------------------------------------|
A|-----3-----------------\1-----------------------------------|
E|------------------------------------------------------------|

E|------------------------------------------------------------|
B|-----9-----9-----9-----\8------8------8------8------8-------|
G|--------0-----0-----0------0------0------0------0------0----|
D|------------------------------------------------------------|
A|-----8-----------------\6-----------------------------------|
E|------------------------------------------------------------|

E|------------------------------------------------------------|
B|-----3-----3-----3------3------3------3---------------------|
G|--------0-----0-----0------0------0-------------------------|
D|------------------------------------------------------------|
A|-----1--------------------------------1---------------------|
E|------------------------------------------------------------|

F#          C#
So come on, let it go
A#m         G#
Just let it be
F#            C#
Why don't you be you
G#
And I'll be me
F#                  C#
And everything that's broke
A#m             G#
Leave it to the breeze
F#              C#
Why don't you be you
G#
And I'll be me
And I'll be me

[Tab - Final]

E|------------------------------------------------------------|
B|----16-----16-----16-----16---------------------------------|
G|--------0------0------0-------------------------------------|
D|------------------------------------------------------------|
A|----15-------------------15---------------------------------|
E|------------------------------------------------------------|
00:00 / 00:00
Otros videos de esta canción
Repetir
Otros videos de esta canción
Composición de James Bay / Paul Barry
Colaboración y revisión:
9.979 vistas
  • Simplificar cifrado
    • ½ Tono
    • A
    • Bb
    • B
    • C
    • Db
    • D
    • Eb
    • E
    • F
    • F#
    • G
    • Ab
  • Agregar a la lista

    0 comentarios

    Ver todos los comentarios

    ¿Lograste tocar?

    16 Tocaron 8 Aún no

    ¡Graba un video tocando Let It Go y envíanoslo!

    00:00 / 00:00
    OK