Cifra Club

Purple Haze

Jimi Hendrix

Cifrado: Principal (guitarra y guitarra eléctrica)
Selo Cifra Club: esta cifra foi revisada para atender aos critérios oficiais da nossa Equipe de Qualidade.
tono: E
[Intro] E7(9+)  G5  A5
        E7(9+)  G5  A5     

[Tab - Intro]

Parte 1 de 5
E|------------------------------------------|
B|------------------------------------------|
G|------------------------------------------|
D|-----8----8---8---8-----------------------|
A|------------------------------------------|
E|---6----6---6---6-------------------------|

Parte 2 de 5
E|------------------------------------------|
B|-------8b---------------------------------|
G|-----7------------------------------------|
D|-7/9------7---/5--------------------------|
A|-----------------5--7-5/7-----------------|
E|------------------------------------------|

Parte 3 de 5
E|------------------------------------------|
B|------------------------------------------|
G|------------------------------------------|
D|------5-7-7b9--5-5------------------------|
A|-5h7--------------------------------------|
E|------------------------------------------|

Parte 4 de 5
E|------------------------------------------|
B|------------------------------------------|
G|------------------------------------------|
D|---------------5--7/9--5h7-5--------------|
A|--------5--6/7---------------7------------|
E|-5--7-3-----------------------------------|

Parte 5 de 5
E|------------------------------------------|
B|------------------------------------------|
G|-------7-7-9------------------------------|
D|---7/9------------------------------------|
A|------------------------------------------|
E|------------------------------------------|

[Primeira Parte]

E7(9+)                 G5          A5
       Purple haze was in my brain
E7(9+)                     G5            A5
       Lately things dont seem  the same
E7(9+)                      G5              A5
       I am actin funny but I dont know why
E7(9+)
       Excuse me while i kiss the sky

[Tab - Riff 1]

E|------------------------------------------|
B|---------------------8~--------8~---------|
G|--11--9---7-------7----------7------------|
D|--------------7/9--------7/9--------------|
A|--9---7---5-------------------------------|
E|------------------------------------------|

E7(9+)             G5         A5
       Purple haze all around
E7(9+)                           G5         A5
       Don't know i f I'm coming up or down
E7(9+)                             G5         A5
       Don`t know if am I happy or in misery?
E7(9+)
       What ever it is that girl putt a spell on mer

[Tab - Riff 1]

E|------------------------------------------|
B|---------------------8~--------8~---------|
G|--11--9---7-------7----------7------------|
D|--------------7/9--------7/9--------------|
A|--9---7---5-------------------------------|
E|------------------------------------------|

[Solo]

[Tab - Solo]

Parte 1 de 12
E|------------------------------------------|
B|--------12/14--------12/14----------------|
G|------9------------9----------------------|
D|-9/11---------9/11------------------------|
A|------------------------------------------|
E|------------------------------------------|

Parte 2 de 12
E|----------15~---------15~-----------------|
B|------------------------------------------|
G|-------12----------12---------------------|
D|-12/14-------12/14------------------------|
A|------------------------------------------|
E|------------------------------------------|

Parte 3 de 12
E|------------------------------------------|
B|------15-------15-------15----------------|
G|-14b16---14/16----14/16-------------------|
D|------------------------------------------|
A|------------------------------------------|
E|------------------------------------------|

Parte 4 de 12
E|------------------------------------------|
B|-------12h14-12h14------------------------|
G|-14/16------------------------------------|
D|------------------------------------------|
A|------------------------------------------|
E|------------------------------------------|

Parte 5 de 12
E|------------------------------------------|
B|-12h14p12-------12------------------------|
G|----------14-14----14-13-14-14b16---------|
D|------------------------------------------|
A|------------------------------------------|
E|------------------------------------------|

Parte 6 de 12
E|------------------------------------------|
B|------------------------------------------|
G|-----12-14p12----12-----------------------|
D|-/14----------14--------------------------|
A|------------------------------------------|
E|------------------------------------------|

Parte 7 de 12
E|------------------------------------------|
B|------------------------------------------|
G|-11-12-11---------------------------------|
D|----------14-12-12-14-12-11-12-/12--------|
A|------------------------------------------|
E|------------------------------------------|

Parte 8 de 12
E|------------------------------------------|
B|------------------------------------------|
G|-9-11-9h11p9------------------------------|
D|-------------12---------------------------|
A|------------------------------------------|
E|------------------------------------------|

Parte 9 de 12
E|------------------------------------------|
B|------------------------------------------|
G|-9-11---11----11----11--------------------|
D|------12---12----12----12-12--------------|
A|------------------------------------------|
E|------------------------------------------|

Parte 10 de 12
E|---------14-12h14p12\10-------------------|
B|------------------------------------------|
G|-9-11-12----------------------------------|
D|------------------------------------------|
A|------------------------------------------|
E|------------------------------------------|

Parte 11 de 12
E|-12-14------------------------------------|
B|-------14h15p14-12h14-12h14p12------------|
G|------------------------------------------|
D|------------------------------------------|
A|------------------------------------------|
E|------------------------------------------|

Parte 12 de 12
E|------------------------------------------|
B|----------15------------------------------|
G|-14-14b16----14b16------------------------|
D|------------------------------------------|
A|------------------------------------------|
E|------------------------------------------|

Help me, help me

Oh, I don't know

[Tab - Riff 2]

Parte 1 de 3
E|------------------------------------------|
B|-------8b---------------------------------|
G|-----7------------------------------------|
D|-7/9------7---/5--------------------------|
A|-----------------5--7-5/7-----------------|
E|------------------------------------------|

Parte 2 de 3
E|------------------------------------------|
B|------------------------------------------|
G|------------------------------------------|
D|--------5-7b-7b------5-7b9--7-------------|
A|--5-6/7----------5/7----------------------|
E|------------------------------3-----------|

Parte 3 de 3
E|------------------------------------------|
B|-------8b---------------------------------|
G|-----7------------------------------------|
D|-7/9------7---/5--------------------------|
A|-----------------5--7-5/7-----------------|
E|------------------------------------------|

[Segunda Parte]

E7(9+)                 G5             A5
       Purple haze was all in my eyes
E7(9+)                     G5          A5
       Don't know if it's day or night
E7(9+)                      
       You've got me blowing
  G5            A5
Blowing my mind, is it 
E7(9+)
       Tomorrow or just the end of time

[Tab - Riff Final]
 
Parte 1 de 2
E|----------15~---------15~-----------------|
B|------------------------------------------|
G|-------12-----------12--------------------|
D|-12/14-------12/14------------------------|
A|------------------------------------------|
E|------------------------------------------|

Parte 2 de 2
E|------------------------------------------|
B|-14-15-14--12-------15b17-----------------|
G|--------------14-12-----------------------|
D|------------------------------------------|
A|------------------------------------------|
E|------------------------------------------|

Who knows?

Help me, yeah

Come on know

Tell me, tell me
00:00 / 00:00
Otros videos de esta canción
Repetir
Otros videos de esta canción
421.274 exhibiciones
    • ½ Tono
    • A
    • Bb
    • B
    • C
    • Db
    • D
    • Eb
    • E
    • F
    • F#
    • G
    • Ab
  • Agregar a la lista

Afinación de cifrado

Afinador online

    00:00 / 00:00
    OK