Cifra Club

Year 3000

Jonas Brothers

Tab de bajo: Principal
Tabbed By: Valerie L.
e-mail: *
Tuning: standard

h = hammer on
p = pull off

Intro
G|----------------------------------------------------------|
D|----------------------------------------------------------|
A|22-2h4p2-----------------------2h4p2----------------------|
E|---------22-2h4p2-00-0-0-0-2h4-------h4-22-2h4p3p2-00-0-0-|

Verse
G|------------------|
D|------------------|
A|-2-2--------------|
E|-----2-2-0-0--0-2-| x4

Pre-Chorus
G|----------------------------------------------------------|
D|----------------------------------------------------------|
A|-----2-4-6~-------1-2-4~----------------------------------|
E|4444---------2222---------0-0-0-0-0-0-0-0-0-0-0-0-0-0-0-0-|

Chorus 
G|-------------------------------|   |-----------------------------|
D|-------------------------------|   |-----------------------------|
A|22-2h4p2-----------------------|   |-22-2h4p2--------------------|
E|--------22-2h4p2-0-0-00-0-2h4p2|x3 |------------22-2h4p2-00-0-0-0|

Bass for verse 2 doesn't come in until (1:05)
G|-68-9-86-------------|
D|---------9-8-6-------|
A|---------------9-7---|
E|---------------------|

Verse x1
Pre-Chorus x1
Chorus x4

Verse
G|-------------------------------------------|
D|-------------------------------------------|
A|-2-2--------------2-2----------------------|
E|-----2-2-0-0--0-2-----2-2--0-0-0-0-0-0-0-0-|

Pre-Chorus x1

Bridge right before outro chorus
G|-----------------------------------------|
D|-----------------------------------------|
A|-----------------------------------------|
E|0-0-0-0-0-0-0-0-22222/121212121212(12's)-|

Play chorus until (3:02)
00:00 / 00:00
Otros videos de esta canción
Repetir
Otros videos de esta canción
Composición de Charlie Simpson / James Bourne / Matt Willis
64 vistas

0 comentarios

Ver todos los comentarios

¿Lograste tocar?

0 Tocaron 0 Aún no

¡Graba un video tocando Year 3000 y envíanoslo!

00:00 / 00:00
OK