Cifra Club

Fogueira

Jorge & Mateus

Cifrado: Versão 7 (guitarra y guitarra eléctrica)
tono: D
(intro)
           Bm                F#m             G       D     A
E|-----------------------2------------------------------------------|
B|-----------------3-3------------2-2-------------------------------|
G|-----------4-4-4----------2-2-2-----4-2-2/4-4-4-4-2-2/4-2---------|
D|----0-------------------------------------------------------------|
A|-0h2--4-2---------------------------------------------------------|
E|------------------------------------------------------------------|

           Bm                 F#m             G       D     A          Bm
E|-----------------------7h----------------------------------------------|
B|-----------------3-3---7h--------2-2-----------------------------------|
G|-----------4-4-4-----------2-2-2-----4-2-2/4-4-4-4-2-2/4-2-------------|
D|----0-----------------------------------------------------------0------|
A|-0h2--4-2----------------------------------------------------0h2--4-2--|
E|-----------------------------------------------------------------------|

Bm                    F#m
  Não para de chover
                 G           D        (A A4 A)
E eu preciso do sol pra lembrar seu calor
Bm                 F#m
  Se eu te magoei
                     G       D      A (riff 1)
Desculpa estou aprendendo o que é amor
F#                   Bm
  Nas noites mais escuras
                G                D (riff 2)
Nos bares, nas ruas, tudo é solidão
F#                Bm
  Não me deixe sozinho,
            G              (A A4 A)
Falta de carinho rima com nova paixão

(refrão)
 D                  A
 Eu quero o seu amor
                      G               D D4 D
 Eu quero ser seu homem, se você quiser
                   A
 Se eu tiver seu amor
               G                  D D4 D
 Juro não preciso amar outra mulher

              G   A                D
Não deixe apagar,   a fogueira do meu coração

(Repete tudo 1x até  o refrão (sem tocá-lo), e prossegue tocando o refrão a seguir 2x, e fecha com as duas frases finais. Na 1ª vez, tocar os acordes Bm-A rapidamente - preparando para a repetição.)

(refrão)
 D                  A
 Eu quero o seu amor
                      G               D D4 D
 Eu quero ser seu homem, se você quiser
                   A
 Se eu tiver seu amor
               G                  D (Bm-A)
 Juro não preciso amar outra mulher

              G   A                D           D7
Não deixe apagar,   a fogueira do meu coração
              G   A                D*
Não deixe apagar,   a fogueira do meu coração

*( ↓↑DD9DD4DD9 / ↑(↓↑↓)↑DD9DD4DD9DD5 )

(riff 1)
E|------------------|
B|--3-2---3-2-------|
G|------4-----4-2---|
D|----------------4-|
A|------------------|
E|------------------|

(riff 2)
E|------------|
B|--3-2-------|
G|------4-2---|
D|----------4-|
A|------------|
E|------------|
Composición de Jorge Alves
Colaboración y revisión:
  • Joel Santos
35 vistas
    • ½ Tono
    • A
    • Bb
    • B
    • C
    • Db
    • D
    • Eb
    • E
    • F
    • F#
    • G
    • Ab
  • Agregar a la lista

    0 comentarios

    Ver todos los comentarios
    00:00 / 00:00
    Outros vídeos desta música
    Repetir Calidad Automático
    Outros vídeos desta música
    00:00 / 00:00
    Automático
    OK