Cifra Club

Fogueira

Jorge & Mateus

Cifrado: Original-completa (guitarra y guitarra eléctrica)
tono: D
(intro)
             Bm                F#m             G       D     A
E|-----------------------2-|-----------------------------------------|
B|-----------------3-3-----|-------2-2-------------------------------|
G|-----------4-4-4---------|-2-2-2-----4-2-2/4-4-4-4-2-2/4-2---------|
D|----0--------------------|-----------------------------------------|
A|-0h2--4-2----------------|-----------------------------------------|
E|-------------------------|-----------------------------------------|

             Bm                 F#m             G       D     A          Bm
E|-----------------------7*-|----------------------------------------------|
B|-----------------3-3---7*-|-------2-2------------------------------------|
G|-----------4-4-4----------|-2-2-2-----4-2-2/4-4-4-4-2-2/4-2--------------|
D|----0---------------------|---------------------------------------0------|
A|-0h2--4-2-----------------|-----------------------------------0h2---4-2--|
E|--------------------------|----------------------------------------------|

* toca em cima do traste entre a casa 7 e casa 8

Bm                    F#m    *
  Não para de chover
                 G           D           (riff 1)
E eu preciso do sol pra lembrar seu calor
Bm                 F#m      *
  Se eu te magoei
                     G       D      A  (riff 2)
Desculpa estou aprendendo o que é amor
F#                   Bm
  Nas noites mais escuras
                G                D   (riff 3)
Nos bares, nas ruas, tudo é solidão
F#                Bm
  Não me deixe sozinho,
            G                          (riff 4)
Falta de carinho rima com nova paixão

(refrão)
 D                  A
 Eu quero o seu amor
                      G                  (riff 5)
 Eu quero ser seu homem, se você quiser
                   A
 Se eu tiver seu amor
               G                  D D4 D
 Juro não preciso amar outra mulher

              G   A                D
Não deixe apagar,   a fogueira do meu coração

(Intro)


Bm                    F#m     *
  Não para de chover
                 G           D            (riff 1)
E eu preciso do sol pra lembrar seu calor
Bm                 F#m      *
  Se eu te magoei
                     G       D      A  (riff 2)
Desculpa estou aprendendo o que é amor
F#                   Bm
  Nas noites mais escuras
                G                D   (riff 3)
Nos bares, nas ruas, tudo é solidão
F#                Bm
  Não me deixe sozinho,
            G                          (riff 4)
Falta de carinho rima com nova paixão

(refrão)

 D                  A
 Eu quero o seu amor
                      G                  (riff 5)
 Eu quero ser seu homem, se você quiser
                   A
 Se eu tiver seu amor
               G                  D  ( Bm  A )
 Juro não preciso amar outra mulher

D                  A
 Eu quero o seu amor
                      G                 (riff 6)
 Eu quero ser seu homem, se você quiser
                   A
 Se eu tiver seu amor
               G                  D
 Juro não preciso amar outra mulher

              G   A                D           D7
Não deixe apagar,   a fogueira do meu coração
              G   A
Não deixe apagar,   a fogueira do meu coração

(D D5 D D4 D D5 D)
(D D5 D D4 D D5 D D5=>D

Bate a ultima vez com a mão direita no D5(9) faz um hammer-on na casa 2 da mizinha irá formar o acorde de D pra fechar a musica.

(riff 1)
E|----------------------------|
B|------5---------------------|
G|--4/6---6\4---4\2--2/4---4--|
D|----------------------------|

(riff 2)
E|-------------------|
B|--3-2---3-2--------|
G|------4------4-2---|
D|-----------------4-|

(riff 3)
E|----------------|
B|--2/3-3---------|
G|--------4-2-----|
D|------------4---|

(riff 4)
E|-------------------|
B|-3p2---4/5--3-2-3--|
G|-----4-------------|
D|-------------------|

(riff 5)

E|--2-3-5-5--|
B|--3-5-7-7--|

(riff 6)

E|-5-5-3-2-2--|
B|-7-7-5-3-3--|

Ritmo: BCC BCC BBC (Bem rápido)
“não sei se é o original mais fica legal de tocar”
Composición de Jorge Alves
Colaboración y revisión:
  • Rafael Freire
64 vistas
    • ½ Tono
    • A
    • Bb
    • B
    • C
    • Db
    • D
    • Eb
    • E
    • F
    • F#
    • G
    • Ab
  • Agregar a la lista

    0 comentarios

    Ver todos los comentarios
    00:00 / 00:00
    Outros vídeos desta música
    Repetir Calidad Automático
    Outros vídeos desta música
    00:00 / 00:00
    Automático
    OK