Cifra Club

Fogueira

Jorge & Mateus

Cifrado: Versão 3 (guitarra y guitarra eléctrica)
tono: D
(intro)
                  Bm                    F#m             G     D        A
E|-----------------------------2--------------------------------------------|
B|------------------0-0-0-3-3----------2-2-2-2-0----------------------------|
G|-------------------------------------2-------------2--4-4-4-4-2--2h4-2----|
D|--------0-----------------------------------------------------------------|
A|----0h2----4--2-----------------------------------------------------------|
E|--------------------------------------------------------------------------|
                 Bm                      F#m              G     D        A
E|------------------------------7-------------------------------------------|
B|------------------0-0-0-3-3---7--------2-2-2-2-0--------------------------|
G|---------------------------------------2-----------2--4-4-4-4-2--2h4-2----|
D|--------0-----------------------------------------------------------------|
A|---0h2-----4--2-----------------------------------------------------------|
E|--------------------------------------------------------------------------|

(na hora que for fazer o solo, fazer a harmonia na pestana 7/8)

Bm                       F#m
Não para de chover
                 G         D          A
E eu preciso do sol pra lembrar seu calor
Bm                       F#m
Se eu te magoei
                     G        D    A
Desculpa estou aprendendo o que é amor

(riff 1)
E|----------------|
B|--3-2-0-3-2-0---|
G|-------------2--|
D|--------------4-|
A|----------------|
E|----------------|

F#                Bm
Nas noites mais escuras
                G               D
Nos bares, nas ruas, tudo é solidão

(riff 2)
E|----------|
B|--3-2-0---|
G|-------2--|
D|--------4-|
A|----------|
E|----------|

F#            Bm                       G                                                          
Não me deixe sozinho, falta de carinho
            A
Rimam com nova paixão

D                A
Eu quero o seu amor
                  G                D    A
Eu quero ser seu homem, se você quiser
D                 A
Se eu tiver seu amor
             G                 D
Juro não preciso amar outra mulher
           G     A                      D
Não deixe apagar, a fogueira do meu coração
Composición de Jorge Alves
149 vistas
    • ½ Tono
    • A
    • Bb
    • B
    • C
    • Db
    • D
    • Eb
    • E
    • F
    • F#
    • G
    • Ab
  • Agregar a la lista

    0 comentarios

    Ver todos los comentarios
    00:00 / 00:00
    Outros vídeos desta música
    Repetir Calidad Automático
    Outros vídeos desta música
    00:00 / 00:00
    Automático
    OK