Cifra Club

Glory

Kamelot

Cifrado: Principal (guitarra y guitarra eléctrica)
tono: B
Tuning    : D# G# C# F# Bb D#

Notes     : There are 2 guitars involved in this song. Guitar 1 plays the
            whole song while guitar 2 only plays the solo.

            When the second guitar is playing the solo, Guitar 1 just
            plays the same part as the intro.

[Intro]

D#----------------0-----0----------------0--------------------------------
Bb--1-1-1-0---1-3---3---1--3-1-0--------1-1-------------------------------
F#--2-2-2-1---2-----0---0------0-2-0---2-----2-2-2------------------------
C#--2-2-2-2---2-----0----------0------2-----3-0-2-------------------------
G#--0-0-0-----0---------3------------0------------------------------------
D#--------0---------3----------3------------------------------------------

D#-------------0------0---0-1----0-----------------------------(1)-(1)----
Bb--1-1-1-0---0-0-1-3---3-------1--1h3p1-0h1p0--------0----------(1)------
F#--2-2-2-1--1----2-----0------0---------0-----2-0---0-0------------------
C#--2-2-2-2-------2-----0----------------0----------1---1-----------------
G#--0-0-0---2-----0-----------3-------------------------------------------
D#--------0-------------3----------------3---------3-----3----------------
                                                             (Play Softly)
[Part 1]

D#-------------0------0-----------0-----------0---------------------------
Bb--1-1-1-0---0-0-1-3---0---0----1------0----1-1--------------------------
F#--2-2-2-1--1----2-----0--0----0-----0-----2-----2-2-0-------------------
C#--2-2-2-2-------2-----0-0----------------2-----3-0-2--------------------
G#--0-0-0---2-----0-----------3-----------0-------------------------------
D#--------0--------------3-----------3-------------------------------------

D#-------------0------0-----------0-----------0---------------------------
Bb--1-1-1-0---0-0-1-3---0---0----1------3----1-1--------------------------
F#--2-2-2-1--1----2-----0--0----0-----0-----2-----------------------------
C#--2-2-2-2-------2-----0------------------------2------------------------
G#--0-0-----2-----0-----------3-----------0-------------------------------
D#--------0-------------3-----------3-------------------------------------

D#-------------0------0-----------0-----------0---------------------------
Bb--1-1-1-0---0---1-3---0---0----1------0----1-1--------------------------
F#--2-2-2-1--1----2-----0--0----0-----0-----2-----2-2-2-------------------
C#--2-2-2-2-------2-----0------------------------3-0-2--------------------
G#--0-0-0---2-----0-----------3-----------0-------------------------------
D#--------0-------------3-----------3-------------------------------------

D#-------------0------0-----------0-----------0---------------------------
Bb--1-1-1-0---0---1--1--0---0----1------0----1-1--------------------------
F#--2-2-2-1--1----2-2---0--0----0-----0-----2---------[silence]-----------
C#--2-2-2-2-2-----2-----0-------------------------------------------------
G#--0-0-0---------0-----------3-----------0-----0-------------------------
D#--------0-------------3-----------3-------------------------------------

[Chorus]

D#--------1-----1-------1---------0-----0-------0-------------------------
Bb------3---3-----3---3---3-----3---3-----3---3---3-----------------------
F#----2-------2-----2---------0-------0-----0-----------------------------
C#--0---------------------------------------------------------------------
G#--------------------------1---------------------------------------------
D#------------------------------------------------------------------------

D#--------0-----0-------0---------0-----0-------0-------------------------
Bb------3---3-----3---3---3-----1---1-----1---1---1-----------------------
F#----0-------0-----0---------2-------2-----2-----------------------------
C#------------------------------------------------------------------------
G#--3-----------------------0---------------------------------------------
D#------------------------------------------------------------------------

D#--------1-----1-------1---------0-----0-------0-------------------------
Bb------3---3-----3---3---3-----3---3-----3---3---3-----------------------
F#----2-------2-----2---------0-------0-----0-----------------------------
C#--0---------------------------------------------------------------------
G#--------------------------1---------------------------------------------
D#------------------------------------------------------------------------

D#--------0-----0-------0-------------------------------------------------
Bb------3---3-----3---3---3-----------------------------------------------
F#----0-------0-----0-------0~--------------------------------------------
C#------------------------------------------------------------------------
G#--3---------------------------------------------------------------------
D#------------------------------------------------------------------------

D#--------1-----1-------1---------1-----------0---------------------------
Bb------3---3-----3---3---3-----3---3-------3---3-------------------------
F#----2-------2-----2---------2-------2---0-------0-----------------------
C#--0-----------------------0---------------------------------------------
G#------------------------------------------------------------------------
D#--------------------------------------3---------------------------------

D#--------0-----0-------0---------0---------------------------------------
Bb------3---3-----3---3---3-----3---3-------------------------------------
F#----0-------0-----0---------0-------0-----------------------------------
C#---------------------------------------3-2h3p2p0------------------------
G#--3-----------------------3----------------------3-2--------------------
D#-----------------------------------------------------3------------------

[Solo Part]

D#-----------------5-8-7-5---------------7-8-10-8-7h8p7-------------------
Bb-------------------------8-6-5------------------------8-8/10---10-------
F#--4-5-7-5-4h5p4----------------5-5/7------------------------------------
C#------------------------------------------------------------------------
G#------------------------------------------------------------------------
D#------------------------------------------------------------------------

D#--7/8---10-8-7----------------------------------------------------------
Bb-----------------10-8-----------------------4-5-7-5-4h5p4---5-5/7-------
F#----------------------10-9-7--------------------------------------------
C#-----------------------------10-9-7-7/9---------------------------------
G#------------------------------------------------------------------------
D#------------------------------------------------------------------------

p = pick
h = hammer
/ = slide up
00:00 / 00:00
Otros videos de esta canción
Repetir
Otros videos de esta canción
Composición de Thomas Youngblood
Colaboración y revisión:
  • Taino Vieira
69 exhibiciones
    • ½ Tono
    • A
    • Bb
    • B
    • C
    • Db
    • D
    • Eb
    • E
    • F
    • F#
    • G
    • Ab
  • Agregar a la lista
    00:00 / 00:00
    OK