Cifra Club

III Ways To Epica

Kamelot

Cifrado: Principal (guitarra y guitarra eléctrica)
tono: B
2nd riff

Eb|---------------------------------------------------------------------|
Bb|17-17-12-17-12-13-15-13-12-10---13-13-12-8-5-------------------------|
Gb|---------------------------------------------------------------------|
Db|---------------------------------------------------------------------|
Ab|---------------------------------------------------------------------|
Eb|---------------------------------------------------------------------|

Eb|---------15-14-17-15-17-19-20-19-15-12-141514-10-12------------------|
Bb|17-17-12-------------------------------------------------------------|
Gb|---------------------------------------------------------------------|
Db|---------------------------------------------------------------------|
Ab|---------------------------------------------------------------------|
Eb|---------------------------------------------------------------------|

3rd riff
pm ..             ..           ..             ..
Eb|-----------------------------------------------------------|
Bb|-----------------------------------------------------------|
Gb|-----------------------------------------------------------|
Db|------------------------5----------------------------------| x?
Ab|--7-5-7-8-7-5-7--7-5-7-8-7-5--7-5-7-8-7-5-7--7-5-7---------|
Eb|00-------------00-----------00-------------00------7-7-8-8-|
hard to make out how many times this riff is played.
00:00 / 00:00
Otros videos de esta canción
Repetir
Otros videos de esta canción
Composición de Kamelot
Colaboración y revisión:
  • Hellektra
33 exhibiciones
    • ½ Tono
    • A
    • Bb
    • B
    • C
    • Db
    • D
    • Eb
    • E
    • F
    • F#
    • G
    • Ab
  • Agregar a la lista
    00:00 / 00:00
    OK