Cifra Club

Under Grey Skies

Kamelot

Cifrado: Principal (guitarra y guitarra eléctrica)
Selo Cifra Club: esta cifra foi revisada para atender aos critérios oficiais da nossa Equipe de Qualidade.
tono: Eb (forma dos acordes no tom de C) Capotraste na 3ª casa
[Intro] Am  F  Am  G
        Am  F  Am  G  Am

    Am        G        Am       G
E|-0--0-----------------------------------|
B|--1--1-----3--3-----1---1----0--0-------|
G|---2--2-----4--4------2--2-----0--0-----|
D|-------------5--5------2--2-----0--0----|
A|-0------------------0-------------------|
E|-----------3-----------------3----------|

    Am        G        F        G      Fdim  Am      Em  C   F      E7
E|-0--0-------------------------------1--------0-----0--1-----1----0----|
B|--1--1-----3--3-----1---1----2------0-------1-1----0--0----1-1---0----|
G|---2--2-----4--4------2--2-----0----1------2---2---0--2---2---2--1----|
D|-------------5--5------3--3-----0---0----------------------------0----|
A|-0----------------------------------------0-----------3----------2----|
E|-----------3--------1--------3---------------------0-----1-------0----|

       Am        G
In the ruins of madness
  Am          G
A ghost of a chance
         Am         G               F      G
There is new hope reborn  in every tragedy
        Fdim    Am
And the world I see bears
  Em    C        F         E7   Am
A mys - te - ry waiting to be revealed

  Am
E|-0----------------|
B|--1--3--1---0-----|
G|---2--2--2---2----|
D|-------2--2---2---|
A|-0---0------0-----|
E|------------------|

     F
And don't you know
 E          F           F      G
That every cloud has a silver lining

        Em        C
You may call me a dreamer
 Em        D
Call me a fool
       Em          C         G  D
Just a blue-eyed believer in you
  Em
In  you

       Am        G
In the age of confusion
Am            G
Tears, and despair
       Am           G           F    G
let me sell you a dream of prosperity
        E7      Am
In this great illusion
    C         F           E7      Am
Our humble intentions are well-concealed

 Am    
E|-0----------------|
B|--1--3--1---0-----|
G|---2--2--2---2----|
D|-------2--2---2---|
A|-0---0------0-----|
E|------------------|

       F
'Cause don't you know
E           F             F     G
That every cloud has a silver lining

         Em        C
You may call me a dreamer
Em         D
Call me a fool
       Em          C          G D
Just a blue-eyed believer in you
         Em           C
But I'll die for that someone
       G           D
In the blink of an eye
   Em              C
So tell me, please tell me
     G            D       Em
Just what kind of fool am I?

( Em  G  C  B  Em  F  B )

       Em      D   G
When I drown in my fears
       C9             B7
In the dark - ness of sorrow
          Em     D    F   F9
There's a promise of grace
       B9         B7
Under silver grey skies
        Em    D   G
And I'm drying my tears
       C9       B7
In the blaze of the sunlight
  Em      G     F               B7
A rever  -  ie sealed with a kiss

B7          Em         C
And you may call me a dreamer
Em        D
Call me a fool
       Em          C         G D
Just a blue-eyed believer in you
         Em           C
But I'll die for that someone
       G           D
In the blink of an eye
   Em              C
So tell me, please tell me
     G             D      Em
Just what kind of fool am I?

Em        C
Call me a dreamer
Em        D
Call me a fool
       Em          C             G         D
Just a blue-eyed believer of the colors in you
         Em           C
But I'll die for that someone
       G           D
In the blink of an eye
   Em              C
So tell me, please tell me
     G             D       D9
Just what kind of fool am I?
Otros videos de esta canción
    307 exhibiciones
      • ½ Tono
      • A
      • Bb
      • B
      • C
      • Db
      • D
      • Eb
      • E
      • F
      • F#
      • G
      • Ab
    • Agregar a la lista

    Afinação da cifra

    Afinador online

      Ops (: Contenido disponible solo en portugués.
      OK