Cifra Club

Wings Of Despair

Kamelot

Cifrado: Principal (guitarra y guitarra eléctrica)
tono: Ab (con acordes en la forma de A) Afinación: Eb Ab Db Gb Bb Eb
[Intro]

E|-------------------------------|
B|-------------------------------|
G|-------------------------------|
D|-0--0-7-0-8-0-7-0-3-5-7--------|
A|-------------------------------|
E|-------------------------------|

E|-------------------------------|
B|-------------------------------|
G|-------------------------------|
D|-0--0-7-0-8-0-7-0-3-5-7--------|
A|-------------------------------|
E|-------------------------------|

E|-----------------------------------------|
B|-----------------------------------------|
G|-----------------------------------------|
D|-0--0-7-0-8-0-7-0-/12-10h12p10-8-7-5-7-8-|
A|-----------------------------------------|
E|-----------------------------------------|

[Verso 1]

E|---------------------------------------------------------|
B|---------------------------------------------------------|
G|--7--------------------------10-------------5------------|
D|--7--------------------------10-------------5------------|
A|--5--5-5-5-5-5-5-5-5-5-5-----8--------------3------------|
E|---------------------------------------------------------|

E|---------------------------------------------------------|
B|---------------------------------------------------------|
G|--7----------------------------------------5-------------|
D|--7--------------------------3-------------5-------------|
A|--5--5-5-5-5-5-5-5-5-5-5-----1-------------3-5-7-5-3-1-0-|
E|---------------------------------------------------------|

[Verso 2]

E|---------------------------------------------------------|
B|---------------------------------------------------------|
G|--7--------------------------10-------------5------------|
D|--7--------------------------10-------------5------------|
A|--5--5-5-5-5-5-5-5-5-5-5-----8---8-8-8-8-8--3--3-3-3-3-3-|
E|---------------------------------------------------------|

E|---------------------------------------------------------|
B|---------------------------------------------------------|
G|--7----------------------------------------5-------------|
D|--7--------------------------3-------------5-------------|
A|--5--5-5-5-5-5-5-5-5-5-5-----1--1-1-1-1-1--3--3-3-3-3-3--|
E|---------------------------------------------------------|

[Pré-Refrão]

E|-------------------------------------------------------------------------|
B|---10-------11\10-----10-------8\10----10-------11\10---10-------11--13--|
G|---9--------10\9------9--------7\9-----9--------10\9----9--------10--12--|
D|---7------------------7--------5\7-----7----------------7--------8---10--|
A|---7------------------7--------5\7-----7----------------7--------8---10--|
E|-------------------------------------------------------------------------|

[Refrão]

E|--------------------------------------------------------|
B|--------------------------------------------------------|
G|---7-----3-----5-------------------3-----5--------------|
D|---7-----3-----5-------------------3-----5--------------|
A|---5-----1-----3---8---7------5----1-----3---0--1---3---|
E|--------------------------------------------------------|

E|-------------------------------------------------------------|
B|-------------------------------------------------------------|
G|---7-----3-----5-------------------3-----5-------------------|
D|---7-----3-----5-------------------3-----5-------------------|
A|---5-----1-----3---8---7------5----1-----3---0-1-3-5-3-1/5---|
E|-------------------------------------------------------------|

[Pré-Verso]

E|-------------------------------|
B|-------------------------------|
G|-------------------------------|
D|-0--0-7-0-8-0-7-0-3-5-7--------|
A|-------------------------------|
E|-------------------------------|

E|-------------------------------|
B|-------------------------------|
G|-------------------------------|
D|-0--0-7-0-8-0-7-0-3-5-7--------|
A|-------------------------------|
E|-------------------------------|

E|-----------------------------------------|
B|-----------------------------------------|
G|-----------------------------------------|
D|-0--0-7-0-8-0-7-0-/12-10h12p10-8-7-5-7-8-|
A|-----------------------------------------|
E|-----------------------------------------|

[Verso 3]

E|----------------------------------------------------------|
B|----------------------------------------------------------|
G|--7--------------------------10-------------5-------------|
D|--7--------------------------10-------------5-------------|
A|--5--5-5-5-5-5-5-5-5-5-5-----8---8-8-8-8-8--3--3-3-3-3-3--|
E|----------------------------------------------------------|

E|---------------------------------------------------------|
B|---------------------------------------------------------|
G|--7----------------------------------------5-------------|
D|--7--------------------------3-------------5-------------|
A|--5--5-5-5-5-5-5-5-5-5-5-----1--1-1-1-1-1--3--3-3-3-3-3--|
E|---------------------------------------------------------|

[Pré-Refrão]

E|-------------------------------------------------------------------------|
B|---10-------11\10-----10-------8\10----10-------11\10---10-------11--13--|
G|---9--------10\9------9--------7\9-----9--------10\9----9--------10--12--|
D|---7------------------7--------5\7-----7----------------7--------8---10--|
A|---7------------------7--------5\7-----7----------------7--------8---10--|
E|-------------------------------------------------------------------------|

[Refrão]

E|--------------------------------------------------------|
B|--------------------------------------------------------|
G|---7-----3-----5-------------------3-----5--------------|
D|---7-----3-----5-------------------3-----5--------------|
A|---5-----1-----3---8---7------5----1-----3---0--1---3---|
E|--------------------------------------------------------|

E|-------------------------------------------------------------|
B|-------------------------------------------------------------|
G|---7-----3-----5-------------------3-----5-------------------|
D|---7-----3-----5-------------------3-----5-------------------|
A|---5-----1-----3---8---7------5----1-----3---0-1-3-5-3-1/5---|
E|-------------------------------------------------------------|

[Bridge]

E|-------------------------------------------|
B|------------------------------------3-3-3--|
G|--7------5------3-----2-------------2-2-2--|
D|--7------5------3-----2-------------0-0-0--|
A|--5------3------1-----0-0-0-0-0-0---0-0-0--|
E|-------------------------------------------|

[Pré-Verso]

E|-------------------------------|
B|-------------------------------|
G|-------------------------------|
D|-0--0-7-0-8-0-7-0-3-5-7--------|
A|-------------------------------|
E|-------------------------------|

E|-------------------------------|
B|-------------------------------|
G|-------------------------------|
D|-0--0-7-0-8-0-7-0-3-5-7--------|
A|-------------------------------|
E|-------------------------------|

E|-----------------------------------------|
B|-----------------------------------------|
G|-----------------------------------------|
D|-0--0-7-0-8-0-7-0-/12-10h12p10-8-7-5-7-8-|
A|-----------------------------------------|
E|-----------------------------------------|

E|-----|
B|-----|
G|--5--|
D|--5--|
A|--3--|
E|-----|

[Verso 4]

E|---------------------------------------------------------|
B|---------------------------------------------------------|
G|--7--------------------------10-------------5------------|
D|--7--------------------------10-------------5------------|
A|--5--5-5-5-5-5-5-5-5-5-5-----8---8-8-8-8-8--3--3-3-3-3-3-|
E|---------------------------------------------------------|

E|---------------------------|
B|---------------------------|
G|--7------------------------|
D|--7------------------------|
A|--5--5-5-5-5-5-5-5-5-5-5---|
E|---------------------------|

E|------------------------------|
B|------------------------------|
G|----------------5-------------|
D|--3-------------5-------------|
A|--1--1-1-1-1-1--3--3-3-3-3-3--|
E|------------------------------|

[Pré-Refrão]

E|-------------------------------------|
B|---10-------11\10-----10-------8\10--|
G|---9--------10\9------9--------7\9---|
D|---7------------------7--------5\7---|
A|---7------------------7--------5\7---|
E|-------------------------------------|

E|-------------------------------------|
B|---10-------11\10---10-------11--13--|
G|---9--------10\9----9--------10--12--|
D|---7----------------7--------8---10--|
A|---7----------------7--------8---10--|
E|-------------------------------------|

[Refrão]

E|--------------------------------------------------------|
B|--------------------------------------------------------|
G|---7-----3-----5-------------------3-----5--------------|
D|---7-----3-----5-------------------3-----5--------------|
A|---5-----1-----3---8---7------5----1-----3---0--1---3---|
E|--------------------------------------------------------|

E|---------------------------------------------------------------|
B|---------------------------------------------------------------|
G|---7-----3-----5-------------------3-----5---------------------|
D|---7-----3-----5-------------------3-----5---------------------|
A|---5-----1-----3---8---7------5----1-----3---0-1-3-5-3-1/(5-)--|
E|---------------------------------------------------------------|

E|--------------------------------------------------------|
B|--------------------------------------------------------|
G|---7-----3-----5-------------------3-----5--------------|
D|---7-----3-----5-------------------3-----5--------------|
A|---5-----1-----3---8---7------5----1-----3---0--1---3---|
E|--------------------------------------------------------|

E|---------------------------------------------------------------------------|
B|---------------------------------------------------------------------------|
G|---7-----3-----5-------------------3-----5---------------------------------|
D|---7-----3-----5-------------------3-----5---------------------------------|
A|---5-----1-----3---8---7------5----1-----3---0-1-3-5-3-1-0-1-3-5-3-1/(5-)--|
E|---------------------------------------------------------------------------|

[Final]

E|-------------------------------|
B|-------------------------------|
G|-------------------------------|
D|-0--0-7-0-8-0-7-0-3-5-7--------|
A|-------------------------------|
E|-------------------------------|

E|-------------------------------|
B|-------------------------------|
G|-------------------------------|
D|-0--0-7-0-8-0-7-0-3-5-7--------|
A|-------------------------------|
E|-------------------------------|

E|-----------------------------------------|
B|-----------------------------------------|
G|-----------------------------------------|
D|-0--0-7-0-8-0-7-0-/12-10h12p10-8-7-5-7-8-|
A|-----------------------------------------|
E|-----------------------------------------|
E|-------------------------------|
B|-------------------------------|
G|-------------------------------|
D|-0--0-7-0-8-0-7-0-3-5-7--------|
A|-------------------------------|
E|-------------------------------|

E|-------------------------------|
B|-------------------------------|
G|-------------------------------|
D|-0--0-7-0-8-0-7-0-3-5-7--------|
A|-------------------------------|
E|-------------------------------|
00:00 / 00:00
Otros videos de esta canción
Repetir
Otros videos de esta canción
Composición de Roy Khantatat / Thomas Youngblood
Colaboración y revisión:
  • Lucas Kappaun
16 exhibiciones
    • ½ Tono
    • A
    • Bb
    • B
    • C
    • Db
    • D
    • Eb
    • E
    • F
    • F#
    • G
    • Ab
  • Agregar a la lista
    00:00 / 00:00
    OK