Cifra Club

Somewhere Only We Know

Keane

Tab de bajo: Versão 2
Made for: Erickson 'Sony' Lagos
Standard tuning
If you like write me to S*

This is a great song from the Hopes and Fears, I've seen some others tabs  but I know 
this is 100% right, here we go...

Intro:
       G-----------------------------------------------------------------|
       D-----------------------------------------------------------------|
       A---------5/1111111111111111------------5/7777777-----------------| X2
       E-55555555-------------------7777777777---------------------------|

Piano solo

             Then if you like, and only if you like make this:

       G-----------------------------------------------------------------|
       D-4----4\2----2\0----2---34---------------------------------------|
       A-----------------------------------------------------------------| X2
       E-----------------------------------------------------------------|

Then repeat the intro again, up to "oh simple thing"

       G-----------------------------------------------------------------|
       D-44444444\222222222\00000000-2222222344444444--------------------| X3
       A-----------------------------------------------------------------|
       E-----------------------------------------------------------------|


Chorus:

      G------------------------------------------------------------------|
      D------------------------------------------------------------------|
      A-22222222/4444/7777-22222222/4444/7777----------------------------| X2
      E------------------------------------------------------------------|

      G------------------------------------------------------------------|
      D------------------------------------------------------------------|
      A-5555555----------------------------------------------------------|
      E---------555555543------------------------------------------------|

Ending:

     G-------------------------------------------------------------------|
     D-------------------------------------------------------------------|
     A-9*-7*-5*-4*-2*-0--------------------------------------------------|
     E------------------5------------------------------------------------|


 I hope you enjoy it, I counsel you first listen the song, so this gonna be pretty easy...
00:00 / 00:00
Otros videos de esta canción
Repetir
Otros videos de esta canción
Composición de Richard Hughes / Tim Rice-Oxley / Tom Chaplin
14 exhibiciones
00:00 / 00:00
OK