Cifra Club

Aprenda

Pyro

Kings Of Leon

Tablatura: Versão 2 (guitarra)
Tom: C#m
E|-----------------------------------------|
B|------4---------4---------4---------4----|
G|---4------4--4------4--4------4--4-----4-|
D|-6---6-----6---6-----6---6-----6---6-----|
A|-----------------------------------------|
E|-----------------------------------------|

E|-----------------------------------------|
B|------4---------4---------4---------4----|
G|---6------6--6------6--6------6--6-----6-|
D|-6---6-----6---6-----6---6-----6---6-----|
A|-----------------------------------------|
E|-----------------------------------------|

E|-----------------------------------------|
B|------12--------12--------12--------12---|
G|---13----13--13----13--13----13--13----13|
D|14--14----14--14----14--14----14--14----|
A|-----------------------------------------|
E|-----------------------------------------|

(Guitarra 2)
E|-----------------------------------------|
B|-----------------------------------------|
G|-----------------------------------------|
D|-----------------------------------------|
A|------14--------14--------14--------14---|
E|-0---------0---------0---------11--------|

E|-----------------------------------------|
B|-----------------------------------------|
G|-----------------------------------------|
D|-----------------------------------------|
A|------14--------14--------14--------14---|
E|-0---------0---------0---------11--------|

E|-----------------------------------------|
B|-----------------------------------------|
G|-----------------------------------------|
D|-11-------------11-s-7--------------7----|
A|-11-------------11-s-7--------------7----|
E|-9---------------9-s-5--------------5----|

E|-----------------------------------------|
B|-----------------------------------------|
G|-----------------------------------------|
D|-14--------------------------------------|
A|-14---14--------14--------14--------14---|
E|-0---------0---------0---------0---------|

(Guitarra 1)
E|-----------------------------------------|
B|----0------------------------------------|
G|-----------------------------------------|
D|-1h2-------------------------------------|
A|-----------------------------------------|
E|-----------------------------------------|

E|-----------------------------------------|
B|-----------------------------------------|
G|-----------------------------------------|
D|-----------------------------------------|
A|-----------------------------------------|
E|-----------------------------------------|

E|-----------------------------------------|
B|----0-----------------------------0------|
G|-----------------------------------------|
D|-1h2---------------------------1h2-------|
A|-----------------------------------------|
E|-----------------------------------------|

E|-----------------------------------------|
B|-----------------------------------------|
G|-----------------------------------------|
D|-1~--------------------------------------|
A|-----------------------------------------|
E|-----------------------------------------|

E|-----------------------0-----------------|
B|----0-----------------0------------------|
G|---------------------1-------------------|
D|-1h2-------------------------------------|
A|-----------------------------------------|
E|-----------------------------------------|

E|-----------------------------------------|
B|-----------0-----------------------------|
G|-----------------------------------------|
D|-2--------------1------------------------|
A|-----------------------------------------|
E|-----------------------------------------|

E|-----------------------------------------|
B|----0-----------------------------0------|
G|-----------------------------------------|
D|-1h2---------------------------1h2-------|
A|-----------------------------------------|
E|-----------------------------------------|

E|-----------------------------------------|
B|-----------------------------------------|
G|-----------------------------------------|
D|-1~--------------------------------------|
A|-----------------------------------------|
E|-----------------------------------------|

(Guitarra 2)
E|-----------------------------------------|
B|-----------------------------------------|
G|-----------------------------------------|
D|-----------------------------------------|
A|------11--------11--------7---------7----|
E|-9---------9---------5---------5---------|

E|-----------------------------------------|
B|-----------------------------------------|
G|-----------------------------------------|
D|-----------------------------------------|
A|------14--------14--------14--------14---|
E|-0---------0---------0---------0---------|

E|-----------------------------------------|
B|-----------------------------------------|
G|-----------------------------------------|
D|-----------------------------------------|
A|------11--------11--------7---------7----|
E|-9---------9---------5---------5---------|

E|-----------------------------------------|
B|-----------------------------------------|
G|-----------------------------------------|
D|-----------------------------------------|
A|------14--------14--------14--------14---|
E|-0---------0---------0---------0---------|

E|-----------------------------------------|
B|-----------------------------------------|
G|-----------------------------------------|
D|-----------------------------------------|
A|------11--------11--------7---------7----|
E|-9---------9---------5---------5---------|

E|-----------------------------------------|
B|-----------------------------------------|
G|-----------------------------------------|
D|-----------------------------------------|
A|------14--------14--------14--------14---|
E|-0---------0---------0---------0---------|

E|-----------------------------------------|
B|-----------------------------------------|
G|-----------------------------------------|
D|-----------------------------------------|
A|------11--------11--------7---------7----|
E|-9---------9---------5---------5---------|

E|-----------------------------------------|
B|-----------------------------------------|
G|-----------------------------------------|
D|-----------------------------------------|
A|------14--------14--------14--------14---|
E|-0---------0---------0---------0---------|

Refrão:

(Guitarra 1)
E|-----------------------------------------|
B|------12--------12--------12--------12---|
G|---13----13--13----13--13----13--13----13|
D|14--14----14--14----14--14----14--14-----|
A|-----------------------------------------|
E|-----------------------------------------|

(Guitarra 2)
E|-----------------------------------------|
B|-----------------------------------------|
G|-----------------------------------------|
D|-11-------------11-s-7--------------7----|
A|-11-------------11-s-7--------------7----|
E|-9---------------9-s-5--------------5----|

E|-----------------------------------------|
B|-----------------------------------------|
G|-----------------------------------------|
D|-14--------------------------------------|
A|-14---14--------14--------14--------14---|
E|-0---------0---------0---------0---------|

(Guitarra 1)
E|-----------------------------------------|
B|-----12----------------------------12----|
G|-----------------------------------------|
D|-13h14-------------------------13h14-----|
A|-----------------------------------------|
E|-----------------------------------------|

E|-----------------------------------------|
B|----------------9~-----------------------|
G|-----------------------------------------|
D|-----------------------------------------|
A|-----------------------------------------|
E|-----------------------------------------|

E|-----------------------------------------|
B|----12-----------------------------12----|
G|-----------------------------------------|
D|-13h14-------------------------13h14-----|
A|-----------------------------------------|
E|-----------------------------------------|

E|-----------------------------------------|
B|-----------------------------------------|
G|-----------------------------------------|
D|-13~-------------------------------------|
A|-----------------------------------------|
E|-----------------------------------------|

E|-----------------------------------------|
B|-----12----------------------------------|
G|-----------------------------------------|
D|-13h14-----------------------------------|
A|-----------------------------------------|
E|-----------------------------------------|

E|-9----9----4----4~-----------------------|
B|-----------------------------------------|
G|-----------------------------------------|
D|-----------------------------------------|
A|-----------------------------------------|
E|-----------------------------------------|

E|-----------------------------------------|
B|-----12----------------------------12----|
G|-----------------------------------------|
D|-13h14-------------------------13h14-----|
A|-----------------------------------------|
E|-----------------------------------------|

E|-----------------------------------------|
B|-----------------------------------------|
G|-----------------------------------------|
D|-13~-------------------------------------|
A|-----------------------------------------|
E|-----------------------------------------|

(Guitarra 2)
E|-----------------------------------------|
B|-----------------------------------------|
G|-----------------------------------------|
D|-----------------------------------------|
A|------11--------11--------7---------7----|
E|-9---------9---------5---------5---------|

E|-----------------------------------------|
B|-----------------------------------------|
G|-----------------------------------------|
D|-----------------------------------------|
A|------14--------14--------14--------14---|
E|-0---------0---------0---------0---------|

E|-----------------------------------------|
B|-----------------------------------------|
G|-----------------------------------------|
D|-----------------------------------------|
A|------11--------11--------7---------7----|
E|-9---------9---------5---------5---------|

E|-----------------------------------------|
B|-----------------------------------------|
G|-----------------------------------------|
D|-----------------------------------------|
A|------14--------14--------14--------14---|
E|-0---------0---------0---------0---------|

E|-----------------------------------------|
B|-----------------------------------------|
G|-----------------------------------------|
D|-----------------------------------------|
A|------11--------11--------7---------7----|
E|-9---------9---------5---------5---------|

E|-----------------------------------------|
B|-----------------------------------------|
G|-----------------------------------------|
D|-----------------------------------------|
A|------14--------14--------14--------14---|
E|-0---------0---------0---------0---------|

E|-----------------------------------------|
B|-----------------------------------------|
G|-----------------------------------------|
D|-----------------------------------------|
A|------11--------11--------7---------7----|
E|-9---------9---------5---------5---------|

E|-----------------------------------------|
B|-----------------------------------------|
G|-----------------------------------------|
D|-----------------------------------------|
A|------14--------14--------14--------14---|
E|-0---------0---------0---------0---------|

(Refrão)

(Guitarra 1)
E|-----------------------------------------|
B|------4---------4---------4---------4----|
G|---4------4--4------4--4------4--4-----4-|
D|-6---6-----6---6-----6---6-----6---6-----|
A|-----------------------------------------|
E|-----------------------------------------|

E|-----------------------------------------|
B|------4---------4---------4---------4----|
G|---6------6--6------6--6------6--6-----6-|
D|-6---6-----6---6-----6---6-----6---6-----|
A|-----------------------------------------|
E|-----------------------------------------|

E|-----------------------------------------|
B|------12--------12--------12--------12---|
G|---13----13--13----13--13----13--13----13|
D|14--14----14--14----14--14----14--14----|
A|-----------------------------------------|
E|-----------------------------------------|

(Guitarra 2)
E|-----------------------------------------|
B|-----------------------------------------|
G|-----------------------------------------|
D|-11-------------11-s-7--------------7----|
A|-11-------------11-s-7--------------7----|
E|-9---------------9-s-5--------------5----|

E|-----------------------------------------|
B|-----------------------------------------|
G|-----------------------------------------|
D|-14--------------------------------------|
A|-14---14--------14--------14--------14---|
E|-0---------0---------0---------0---------|

Ponte:

(Guitarra 1)
E|-----------------------------------------|
B|------9----7-----------------------------|
G|-9-------------------6----9---------6\---|
D|----------------9------------------------|
A|-----------------------------------------|
E|-----------------------------------------|

E|-----------------------------------------|
B|-----------------------------------------|
G|-1--2-1--2-1~----------------------------|
D|-----------------------------------------|
A|-----------------------------------------|
E|-----------------------------------------|

E|-----------------------------------------|
B|------9----7-----------------------------|
G|-9-------------------6----9---------6/---|
D|----------------9------------------------|
A|-----------------------------------------|
E|-----------------------------------------|

E|-----------------------------------------|
B|-----------------------------------------|
G|-13-1413-1413~---------------------------|
D|-----------------------------------------|
A|-----------------------------------------|
E|-----------------------------------------|

E|-----------------------------------------|
B|------4---------4---------4---------4----|
G|---4------4--4------4--4------4--4-----4-|
D|-6---6-----6---6-----6---6-----6---6-----|
A|-----------------------------------------|
E|-----------------------------------------|

E|-----------------------------------------|
B|------4---------4---------4---------4----|
G|---6------6--6------6--6------6--6-----6-|
D|-6---6-----6---6-----6---6-----6---6-----|
A|-----------------------------------------|
E|-----------------------------------------|

E|-----------------------------------------|
B|------4---------4---------4---------4----|
G|---4------4--4------4--4------4--4-------|
D|-6---6-----6---6-----6---6-----6---6-----|
A|-----------------------------------------|
E|-----------------------------------------|

(Guitarra 2)
E|-5--------------5----4--------------4----|
B|-5--------------5----4--------------4----|
G|-6--------------6----5--------------5----|
D|-7--------------7----6--------------6----|
A|-7--------------7----6--------------6----|
E|-5--------------5----5--------------5----|

E|-2---------------------------------------|
B|-2---------------------------------------|
G|-3---------------------------------------|
D|-4---------------------------------------|
A|-4---------------------------------------|
E|-2---------------------------------------|

(Guitarra 1)
E|-----------------------------------------|
B|------12--------12--------12--------12---|
G|---13----13--13----13--13----13--13----13|
D|14--14----14--14----14--14----14--14-----|
A|-----------------------------------------|
E|-----------------------------------------|

E|-----------------------------------------|
B|------4---------4---------4---------4----|
G|---4------4--4------4--4------4--4-----4-|
D|-6---6-----6---6-----6---6-----6---6-----|
A|-----------------------------------------|
E|-----------------------------------------|

E|-----------------------------------------|
B|------4---------4---------4---------4----|
G|---6------6--6------6--6------6--6-----6-|
D|-6---6-----6---6-----6---6-----6---6-----|
A|-----------------------------------------|
E|-----------------------------------------|

E|-----------------------------------------|
B|------4---------4---------4---------4----|
G|---4------4--4------4--4------4--4-----4-|
D|-6---6-----6---6-----6---6-----6---6-----|
A|-----------------------------------------|
E|-----------------------------------------|

E|-----------------------------------------|
B|------4----------------------------------|
G|------6----------------------------------|
D|-6---------------------------------------|
A|-----------------------------------------|
E|-----------------------------------------|

(Guitarra 2)
E|-0---0---0---0---0---0---0---0---0---0---|
B|-0---0---0---0---0---0---0---0---0---0---|
G|-13--13--13--13--13--13--13--13--13--13--|
D|-14--14--14--14--14--14--14--14--14--14--|
A|-14--14--14--14--14--14--14--14--14--14--|
E|-0---0---0---0---0---0---0---0---0---0---|

E|-0---0---0---0---0---0---0---0---0---0---|
B|-0---0---0---0---0---0---0---0---0---0---|
G|-13--13--13--13--13--13--13--13--13--13--|
D|-14--14--14--14--14--14--14--14--14--14--|
A|-14--14--14--14--14--14--14--14--14--14--|
E|-0---0---0---0---0---0---0---0---0---0---|

E|-----------------------------------------|
B|-----------------------------------------|
G|---------------------6---6---6---6---6---|
D|-11--11--11--11--11--7---7---7---7---7---|
A|-11--11--11--11--11--7---7---7---7---7---|
E|-9---9---9---9---9---5---5---5---5---5---|

E|-----------------------------------------|
B|-----------------------------------------|
G|-13--13--13--13--13--13--13--13--13--13--|
D|-14--14--14--14--14--14--14--14--14--14--|
A|-14--14--14--14--14--14--14--14--14--14--|
E|-0---0---0---0---0---0---0---0---0---0---|

E|-----------------------------------------|
B|-----------------------------------------|
G|---------------------6---6---6---6---6---|
D|-11--11--11--11--11--7---7---7---7---7---|
A|-11--11--11--11--11--7---7---7---7---7---|
E|-9---9---9---9---9---5---5---5---5---5---|

E|-----------------------------------------|
B|-----------------------------------------|
G|-----------------------------------------|
D|-----------------------------------------|
A|------14--------14--------14--------14---|
E|-0---------0---------0---------11--------|

E|-----------------------------------------|
B|-----------------------------------------|
G|-----------------------------------------|
D|-----------------------------------------|
A|------14--------14--------14--------14---|
E|-0---------0---------0---------11--------|

E|-----------------------------------------|
B|-----------------------------------------|
G|-----------------------------------------|
D|-----------------------------------------|
A|------14--------14--------14--------14---|
E|-0---------0---------0---------11--------|

E|-----------------------------------------|
B|-----------------------------------------|
G|(13)-------------------------------------|
D|-14--------------------------------------|
A|-14--------------------------------------|
E|-0---------------------------------------|

E|-----------------------------------------|
B|------4---------4---------4---------4----|
G|---4------4--4------4--4------4--4-----4-|
D|-6---6-----6---6-----6---6-----6---6-----|
A|-----------------------------------------|
E|-----------------------------------------|
Compositor Caleb Followill / Jared Followill / Matthew Followill / Nathan Followill
Colaboración y revision:
  • Jonathan Pessoa
63 reproducciones
    • ½ Tom
    • Am
    • Bbm
    • Bm
    • Cm
    • C#m
    • Dm
    • Ebm
    • Em
    • Fm
    • F#m
    • Gm
    • G#m
  • Adicionar à lista

    0 comentarios

    Mostrar mais comentários

    ¿Conseguiste tocar?

    1 Tocaron 0 Ainda não

    Grave um vídeo tocando Pyro e mande pra gente!

    00:00 / 00:00
    outros vídeos desta música
    repetir qualidade Automático
    Outros vídeos desta música
    00:00 / 00:00
    Automático
    OK