Cifra Club

Forever

Kiss

Tablatura: Solo
reproducciones 5.201
Tono: G
E|---------10---10------10---10---10---8----|
B|------------------------------------------|
G|-------7----7------7----------7----7---7--|
D|----0-------------------------------------|
A|------------------------------------------|
E|-0----------------------------------------|

E|-7h8p7------------------------------------|
B|-------10~--8-7---------7-7h8----7-8------|
G|----------------9-7~--9--------9-----9----|
D|------------------------------------------|
A|------------------------------------------|
E|------------------------------------------|

E|------------------------------------------|
B|-----------------------------7------------|
G|-----------------------------7------------|
D|-----------7-4---------------7---------0--|
A|-10~--9-10-----5h7~\5--3~-----------------|
E|------------------------------------------|

E|----------------------------------7\5-----|
B|----7-8-10~--8p7---7h8p7---7-8-10-----8---|
G|-----------------9-------9----------------|
D|------------------------------------------|
A|------------------------------------------|
E|-0----------------------------------------|

E|------------------------------------------|
B|-7h8p7p5-7--------------------------------|
G|-----------7/9\7~-------------------------|
D|------------------7h9-7-------------------|
A|------------------------9h10-9-7~---------|
E|------------------------------------------|

E|-------12-14-15--14-12-14-15-14-12--------|
B|-----x------------------------------------|
G|---x--------------------------------------|
D|-x----------------------------------------|
A|------------------------------------------|
E|------------------------------------------|

E|-----15--------14-------12------10---8----|
B|------------------------------------------|
G|-12~----12\11~----11\9~----9\7~----7-5----|
D|------------------------------------------|
A|------------------------------------------|
E|------------------------------------------|
Acordes para:
    Compositor: Michael Bolton / Paul StanleyColaboración y revision:
    • Vinícius Dias
    • Ricardo Reis

    0 comentarios

      mostrar más comentarios

      ¿Conseguiste tocar?

      0tocaron2aún no

      ¡Graba un vídeo tocando Forever y envianoslo!

      00:00 / 00:00
      outros vídeos desta música
      repetirqualidadeautomática
      Outro vídeos desta música
        00:00 / 00:00
        automática
        OK