Cifra Club

Vou Deixar Na Cruz

Kleber Lucas

Tablatura: Original
reproducciones 69
Tono: F
Intro x2: Dm Bb F  C

Solo do teclado da introdução no baixo:
E|--------------------------------------|
B|--------------------------------------|
G|--------------------------------------|
D|--------------------------------------|
A|------3-3h5-----3---5-----3-3h5---3/7-|
E|1-0-5-------1-0---5---1-0-------5-1/5-|

E|--------------------------------------|
B|--------------------------------------|
G|--------------------------------------|
D|--------------------------------------|
A|------3-3h5-----3---5-----3-3h5---3/7-|
E|1-0-5-------1-0---5---1-0-------5-1/5-|

F
Sua morte ali na cruz
F7M
Carregando a minha dor
Bb
Você se expôs por mim
F
Se entregou em me lugar
F7M
E me deu uma nova chance
Bb
Eu vou recomeçar

             Dm                   Bb
Vou deixar na cruz tudo o que passou
            F            C
Tudo o que ficou pra trás
           Dm               Bb
Olho pra você, corro pra Você
         F/A
O Seu amor me chama

      C                  Gm                   F
Eu dependo desse amor, do Seu amor mais que tudo
       C9                  Gm                  F
Eu confio que esse amor tem poder pra curar dores
Acordes para:
    Colaboración y revision:

    0 comentarios

      mostrar más comentarios

      ¿Conseguiste tocar?

      16tocaron0aún no

      ¡Graba un vídeo tocando Vou Deixar Na Cruz y envianoslo!

      00:00 / 00:00
      outros vídeos desta música
      repetirqualidadeautomática
      Outro vídeos desta música
        00:00 / 00:00
        automática
        OK