Cifra Club

Another Brick In The Wall

KoRn

Cifrado: Principal (guitarra y guitarra eléctrica)
Selo Cifra Club: esta cifra foi revisada para atender aos critérios oficiais da nossa Equipe de Qualidade.
tono: C
(intro / riff 1 - lotes de distorção)
E|-----------------------------------------------------|
B|-----------------------------------------------------|
G|-----------------------------------------------------|
D|----5--------5---------5--------5--------5--------5--|(repetir algumas vezes)
A|----5--------5---------5--------5--------5--------5--|
E|----5--------5---------5--------5--------5--------5--|

(riff 2)
E|---------------------------------------------------------------------------------|
B|---------------------------------------------------------------------------------|
G|---------------------------------------------------------------------------------|
D|---5------5-----5------5-----5------5-----5-------3------------------------------|
A|---5------5-----5------5-----5------5-----5-------3------------------------------|
E|---3------3-----3------3-----3------3-----3-------1------------------------------|

(these two are repeated over and over again!just play along with the song)

(solo)
E|--------------------------------------10-----------------------------------------|
B-13p---10------10-----------10------13b-----10---10---10--------------------------|
G|---------------12-------12b----------------------10---10----10-------------------|
D|---------------------------------------------------------------------------------|
A|---------------------------------------------------------------------------------|
E|---------------------------------------------------------------------------------|

E|--------------------------------------------------------------------------------|
B|---13-b----15b---17b---13b------13p--10--------10------10s9---------------------|
G|---------------------------------------------------12---------------------------|
D|--------------------------------------------------------------------------------|
A|--------------------------------------------------------------------------------|
E|--------------------------------------------------------------------------------|

E|-------------------------------------------------------------------------------|
B|--------------------------------------10----10------10---10-------10---12--10--|
G|---------9------------12------------10----10------10---10-------10---12--10----|
D|----12------10s12--------12------------------12------------12------------------|
A|-------------------------------------------------------------------------------|
E|-------------------------------------------------------------------------------|

E|---13b----13--13------------------------------------------------------------------------|
B|-----------------------13b-15b-17b-18b-15b---17-----------------------------------------|
G|----------------------------------------------------------------------------------------|
D|----------------------------------------------------------------------------------------|
A|----------------------------------------------------------------------------------------|
E|----------------------------------------------------------------------------------------|

E|-----------10--------------------------------------------------------------------------|
B|-------10------13p10-------------------------------------------------------------------|
G|---12-------------------12b-14b-12p10-12p10----10--------------------------------------|
D|-------------------------------------------------------------------12----12------------|
A|---------------------------------------------------------------------------------------|
E|---------------------------------------------------------------------------------------|

E|--------------------------------------------------------------------------------------|
B|--------------------------------------------------------------------------------------|
G|--12---10-----------------------------------------------------------------------------|
D|--12---10-----------------------------------------------------------------------------|
A|--------------12----10----10---8------------------------8-----------------------------|
E|---------------------------------------10p8---10---10-------10p8---10-----------------|

E|------------------------------------------------------------------------------------|
B|--------------------5h6p5---------------------------------------6b------------------|
G|---------5----7-------------7------7p5------5----5---7p5----------------------------|
D|----7--------------------------------------7----------------------------------------|
A|------------------------------------------------------------------------------------|
E|------------------------------------------------------------------------------------|

E|-----------------------------------------15b---13-----------------13---------------|
B|----13b----13b---15b---17b--13----------------15-------15--------15----------------|
G|-----------------------------------------------------------------------------------|
D|-----------------------------------------------------------------------------------|
A|-----------------------------------------------------------------------------------|
E|-----------------------------------------------------------------------------------|

E|---17b-15b----17b----15b-17b----------15b-----18b----20----20b---------------------|
B|-------------------------------------------15b-------------------------------------|
G|-----------------------------------------------------------------------------------|
D|-----------------------------------------------------------------------------------|
A|-----------------------------------------------------------------------------------|
E|-----------------------------------------------------------------------------------|

E|--22---20-p--17--20--17------------------------------------------------------------|
B|-------------------------------------------------------------------12---12---------|
G|--------------------------------10---10---10--------------------12---12------------|
D|-------------------------------------------------12--------------------------------|
A|-------------------------------------------------------10--10----------------------|
E|-----------------------------------------------------------------------------------|

E|--10---------------------|
B|--10---------------------|
G|-------------------------|
D|-------------------------|
A|-------------------------|
E|-------------------------|
Otros videos de esta canción
    868 exhibiciones
      • ½ Tono
      • A
      • Bb
      • B
      • C
      • Db
      • D
      • Eb
      • E
      • F
      • F#
      • G
      • Ab
    • Agregar a la lista

    Afinação da cifra

    Afinador online

      Ops (: Contenido disponible solo en portugués.
      OK