Cifra Club

Aprenda

Bitch, We Got a Problem

Korn

Tablatura: Versão 2 (guitarra)
Tom: F#
Album:Untitled

Standard Tuning

I'm not sure about riff a and b but if you listen to the song and get the timing you'll 
they sound pretty close. Munky recorded two different guitar tracks for a lot of their 
songs so some of these songs could be played with two guitars, so i'll label gtr. 1, gtr. 2.


Verse
riff a  gtr. 1
|---------------------|
|---------------------|
|---------------------|  x2
|---------------------|
|-4--3--4-4-4-444-555-|
|-2--1--2-2-2-222-222-|


riff b  gtr. 1                riff c gtr. 2
|--------------------|        |---------------------------------------|
|--------------------|        |---------------------------------------|
|--------------------|        |--1313-13-13-13-13/16-16-16-16-16-16-16|
|--------------------|        |---------------------------------------|
|--------------------|  x2    |---------------------------------------|  x2
|-1-0-1-0-1-0-1-0-22-|        |---------------------------------------|
the timing isnt really         these arent the exact amount of times
here


Chorus  gtr. 1
|------------------------------------|
|------------------------------------|
|------------------------------------| x2
|------------------------------------|
|--4---------6---------5---------4---|
|--2---------4---------3---------2---|


gtr. 2
|-----------------------------8b--2------------------------|
|10/7---2b-----10/7---2b-------------10-7--12-7--10-7------|
|----------5/3-----------5----------------------------5/4/2|
|----------------------------------------------------------|
|----------------------------------------------------------|
|----------------------------------------------------------|

|--------------------------------------------------------------------------|
|-10-7--10-7-10-7-12--14-7--10-7--12--14-7--10-7--12-7---------------------|
|------------------------------------------------------5/4--4/3--3/2-2-3---|
|--------------------------------------------------------------------------|
|--------------------------------------------------------------------------|
|--------------------------------------------------------------------------|


Interlude
gtr. 1, gtr. 2                      gtr. 2
|----------------------------------|-------------------------|
|----------------------------------|-------------------------|
|----------------------------------|-------------------------|
|----------------------------------|-------------------------|
|13-10-10-10-13-8--13-10-10-10-13/8|------1-2-3----1-2-3-----|
|11--8--8--8-11-6--11--8--8--8-11/6|--1-1-------1-1-------1-3|
I dont know the exact amount of times to play each note for guitar 1 buy its close to that.

gtr. 1
|-------------------------|
|-------------------------|
|-------------------------|
|-------------------------|
|-------------------------|
|--0-1-0-1-0-1-0-1-0-1-2-3|

gtr. 2
|-----------------------------------------|
|-----------------------------------------|
|-----------------------------------------|
|-----------------------------------------|
|--7-6-7-6-7-6-7-6-7-6--2-2-2-2-2-0-0-6-6-|
|-----------------------------------------|


Outro
gtr. 2
|-------------------------------------------------|
|-------------------------------------------------|
|--11--14-14-14-14-0-11-9-11----------------------|
|-----------------------------10-10-10-10-10-10-10|
|-------------------------------------------------|
|-------------------------------------------------|

gtr.1 just plays the chorus riff for the outro


Thats it. All of it sounds pretty close. It may confusing but if you listen to the song, 
become easier.
Compositor Atticus Ross / Korn / Zac Baird
1 reproducciones
    • ½ Tom
    • A
    • Bb
    • B
    • C
    • Db
    • D
    • Eb
    • E
    • F
    • F#
    • G
    • Ab
  • Adicionar à lista

    0 comentarios

    Mostrar mais comentários

    ¿Conseguiste tocar?

    0 Tocaron 0 Ainda não

    Grave um vídeo tocando Bitch, We Got a Problem e mande pra gente!

    00:00 / 00:00
    outros vídeos desta música
    repetir qualidade Automático
    Outros vídeos desta música
    00:00 / 00:00
    Automático
    OK