Cifra Club

Blind

Korn

Tablatura: Principal (guitarra)
Tom: E
     (10x)    |  (            2x    )|     (          3x          )
E|-------------|----------------------|-------------------------------------------|
B|-3333--------|---------------3333---|---------------------3333------------------|
G|-1111--------|---------------1111---|---------------------1111------------------|
D|-0000--------|---------------0000---|---------------------0000------------------|
A|-------------|----------------------|-------------------------------------------|
E|-------------|--0--2--0--3----------|--0-2-0-3-0-2-0-3--------------------------|

E|------------------------------|
B|------------------------------|
G|------------------------------|
D|------------------------------|
A|------------------------------|
E|--0-2-0-3-0-2-0-3-x-x-x-x-x-x-|

  (4x depois tem uma pausa e toca mais 8x)
E|-----------------------------------------|
B|-----------------------------------------|
G|-----------------------------------------|
D|-----------------------------------------|
A|--0--2--0--3---0--2--0--3----6--6--6--6--|
E|--0--2--0--3---0--2--0--3----6--6--6--6--|

  This place inside my mind, a place I like to hide
E|--------------------------------------------------|
B|--------------------------------------------------|
G|-----5-----------------6-----------------------5--|
D|-----5-----------------6-----------------------5--|
A|-----4-----------------5-----------------------4--|
E|--------------------------------------------------|

You don't know the chances. What if I should die?
E|--------------------------------------------------|
B|--------------------------------------------------|
G|--------------------6-----------------------5-----|
D|--------------------6-----------------------5-----|
A|--------------------5-----------------------4-----|
E|--------------------------------------------------|

A place inside my brain, another kind of pain
E|----------------------------------------------|
B|----------------------------------------------|
G|------------------6------------------------5--|
D|------------------6------------------------5--|
A|------------------5------------------------4--|
E|----------------------------------------------|

You don't know the chances.
E|--------------------------|
B|--------------------------|
G|--------------------6-----|
D|--------------------6-----|
A|--------------------5-----|
E|--------------------------|

 I'm so blind            blind       blind
E|----------------------------------------------------|
B|----------------------------------------------------|
G|----------------------------------------------------|
D|----------------------------------------------------|
A|-0-0-1-0-0-0-1-5--0-0-2-0-0-0-1-3--0-0-2-0-0-0-1-5--|
E|-0-0-1-0-0-0-1-5--0-0-2-0-0-0-1-3--0-0-2-0-0-0-1-5--|

    Another place I find to escape the pain inside
E|--------------------------------------------------|
B|--------------------------------------------------|
G|-5-----------------6--------------------------5---|
D|-5-----------------6--------------------------5---|
A|-4-----------------5--------------------------4---|
E|--------------------------------------------------|

You don't know the chances. What if I should die?
E|--------------------------------------------------|
B|--------------------------------------------------|
G|--------------------6-----------------------5-----|
D|--------------------6-----------------------5-----|
A|--------------------5-----------------------4-----|
E|--------------------------------------------------|

A place inside my brain, another kind of pain
E|--------------------------------------------------|
B|--------------------------------------------------|
G|--------------------6-----------------------5-----|
D|--------------------6-----------------------5-----|
A|--------------------5-----------------------4-----|
E|--------------------------------------------------|

You don't know the chances.
E|--------------------------|
B|--------------------------|
G|--------------------6-----|
D|--------------------6-----|
A|--------------------5-----|
E|--------------------------|

 I'm so blind            blind       blind
E|----------------------------------------------------|
B|----------------------------------------------------|
G|----------------------------------------------------|
D|----------------------------------------------------|
A|-0-0-1-0-0-0-1-5--0-0-2-0-0-0-1-3--0-0-2-0-0-0-1-5--|
E|-0-0-1-0-0-0-1-5--0-0-2-0-0-0-1-3--0-0-2-0-0-0-1-5--|

Deeper and deeper and deeper as I journey to
Live a life that seems to be a lost reality
That can never find a way to reach.
My inner selfesteem is low.
How deep can I go in the ground that I lay?
If I don't find a way to see through the gray that clouds my mind.
This time I look to see what's between the lines

            ( 8x )
E|-----------------------------|
B|-----------------------------|
G|-----------------------------|
D|-----------------------------|
A|-0-2-0-3-0-2-0-3---6-6-6-6---|
E|-0-2-0-3-0-2-0-3---6-6-6-6---|

      (   5x   )
E|---5----3------------------|
B|---4----2------3333--------|
G|---4----2------1111--------|
D|---------------0000--------|
A|---------------------------|
E|---------------------------|

I can see, I can see, I'm going blind...

          ( 4x )
E|---------------------------|
B|---------------------------|
G|-----5-----------------6---|
D|-----5-----------------6---|
A|-----4-----------------5---|
E|---------------------------|

I'm blind

           (      8x      )
E|-----------------------------------------|
B|-----------------------------------------|
G|-----------------------------------------|
D|-----------------------------------------|
A|--0--2--0--3---0--2--0--3----6--6--6--6--|
E|--0--2--0--3---0--2--0--3----6--6--6--6--|
reproducciones 1.477
Acordes para:

    0 comentarios

    mostrar más comentarios

    ¿Conseguiste tocar?

    18 tocaron 0 aún no

    ¡Graba un vídeo tocando Blind y envianoslo!

    00:00 / 00:00
    outros vídeos desta música
    repetir qualidade Automático
    Outros vídeos desta música
    00:00 / 00:00
    Automático
    OK