Cifra Club

Cameltosis

Korn

Tablatura: Principal (guitarra)
Tom: G
Guitarra 1               Guitarra 2
d||--------------------|------------------||
A||--9s10---9s10-9s10--|------------------||
F||--------------------|-----5-5-----5----||
C||--------------------|--9--------4---4--||
G||--------------------|--9---------------||
D||--------------------|--7---------------||

Riff

d||------------||
A||------------||
F||--7--11--6--||
C||------------||
G||--5---9--4--||
D||------------||

d||------------||
A||--9---6-----||
F||------------||
C||------------||
G||------------||
D||------------||

Guitarra 1          Guitarra 2

d||--------------|-----------||
A||--------------|---20------||
F||-----11--12---|-----------||
C||--9--11--12---|---17------||
G||--9---9--10---|-----------||
D||--7-----------|-----------||
reproducciones 32
Acordes para:
    Composição: Korn / Tré Hardson Colaboración y revision:
    • Manoel Junior

    0 comentarios

    mostrar más comentarios

    ¿Conseguiste tocar?

    0 tocaron 0 aún no

    ¡Graba un vídeo tocando Cameltosis y envianoslo!

    00:00 / 00:00
    outros vídeos desta música
    repetir qualidade Automático
    Outros vídeos desta música
    00:00 / 00:00
    Automático
    OK