Cifra Club

Chi

Korn

Tablatura: Principal (guitarra)
Tom: F#
Transcribed By Big

7-sting guitar tuned down a full step

Intro
||-------
||-------
||-------
||-------
||------- feedback
||-4\3---
||-2\1---

Intro 2
||------------------
||------------------
||------------------
||------------------
||------------------
||-4\3-3\2-2--2-3/4-
||-2\1-1\0-0--0-1/2-

Pre-verse
||-12---------------
||------------------
||------------------
||------------------
||------------------
||------------------
||------------------

Verse-all natural harmonics
||-14---------14--------
||-----11--------11-12--
||--------11\-----------
||----------------------
||----------------------
||----------------------
||----------------------

Chorus same as intro 2

Bridge 1
We, enter in my head...
||-----------------------
||-----------------------
||-----------------------
||-Feedback--------------
||-----------------------
||-----------------------
||-----------------------

Bridge 2
||-------------------
||-------------------
||-------------------
||-------------------
||-------------------
||-2--2-2-2-7-7--3-3-
||-0--0-0-0-5-5--1-1-

Bridge 3
||---------------------------
||---------------------------
||---------------------------
||---------------------------
||---------------------------
||-2222--2222--2222-7-7--3-3-
||-0000--0000--0000-5-5--1-1-

Outro
Pain!
||----------
||----------
||----------
||----------
||----------
||-5--4\3-2-
||-3--2\1-0-
reproducciones 40
Acordes para:
    Composição: Korn Colaboración y revision:
    • leandro

    0 comentarios

    mostrar más comentarios

    ¿Conseguiste tocar?

    0 tocaram 0 aún no

    Grave um vídeo tocando Chi e mande pra gente!

    00:00 / 00:00
    outros vídeos desta música
    repetir qualidade Automático
    Outros vídeos desta música
    00:00 / 00:00
    Automático
    OK